Bitcoin Income
Advertise on this space for USD3 per month. Click here.

Search


Disclaimer

This guitar tabs & chords is the author's own work and represents their interpretation of the song. You may only use this file for private study, scholarship, or research. Please support Malaysia music & entertainment industries and buy original CD and movies.

Dato Shake - Anugerah Dari Kegagalan

(List all songs by Dato Shake)
submitted by takakunai on 14 May 2011 12:00 AM
Total views : 8469
  • Currently 0/5

Rating: 0/5 (0 votes cast) Please 'log in' to cast vote.


Dato Shake - Anugerah Dari Kegagalan

Chords by takakunai for MalayOLGA

Fill1 x2

(Verse1)
  Cm
Dari kegagalan

Satu percintaan
    Gm
Ku alami
Fm
Penderitaan

Kesengsaraan
     Cm     Gm
Kebatinan

(Verse2)
  Cm
Tapi di sebalik

Semua kepahitan
      Gm
Tersembunyi
Fm
Oh keinsafan

Dan pengertian
       Cm
Yang amat dalam

(Bridge)
Fm
Terbukti kegagalan
Gm                  Cm
Bukanlah kehancuran
   Gm
Dengan anugerah

Nikmat dan hikmat
      Cm
Kehidupan

(Chorus)
 G        C
Aku pelajari
    G       C
Mengenali diri
 G          C
Dan siapa kita
 G           Am
Yang sebenarnya
   G  F   G
Di bumi Tuhan
C
Wo ho

Fill1

Repeat from Verse1 to end of Chorus
 
Solo

Chorus x2

Fill1 x2  Hey!


*Fill1

E|-------------------------|-----------------------|--
B|---------4--3-----3------|--------4--3-----4--3--|--
G|---------------5---------|--------------5--------|--
D|------5------------------|--5--6-----------------|--
A|-------------------------|-----------------------|--
E|-------------------------|-----------------------|--

E|-------------------------|-----------------------|--
B|---------4--3-----3------|--------------3--4--6--|--
G|---------------5---------|--------3--5-----------|--
D|--5----------------------|--5--6-----------------|--
A|-------------------------|-----------------------|--
E|-------------------------|-----------------------|--

Videos

Advertisement

Pantas Sifir

Facebook MalayOLGA

Comments

MalayOLGA - Malaysian Online Guitar Archive

Sponsors

Advertise Here!

Recent Visitors

blog counter

View My Stats

Page rendered in 0.3718 seconds