Advertise on this space for USD3 per month. Click here.

Disclaimer

This guitar tabs & chords is the author's own work and represents their interpretation of the song. You may only use this file for private study, scholarship, or research. Please support Malaysia music & entertainment industries and buy original CD and movies.

A Halim - Kisah dan Tauladan

(List all songs by A Halim)
submitted by takakunai on 18 Feb 2012 12:00 AM
Total views : 13944

Insert Comment   Show Comments
  • Currently 0/5

Rating: 0/5 (0 votes cast) Please 'log in' to cast vote.


A Halim - Kisah dan Tauladan

Chords by takakunai for MalayOLGA

Intro*

Am                    E
 Semenjak kita berpandangan
Dm                     Am
 Mata bertemu menggoda kalbu
Dm                     Am
 Hingga menjadi satu impian
F                    E
 Bergelora satu harapan


Am                   E
 Puas sudah ku renungi
Dm                    Am
 Wajahmu manis umpama dewi
Dm                    Am
 Kian membara di hati ku
F       E         Am
 Sama jua di hati mu


E                      Am
 Sedikit tidak aku menyangka
E                      Am
 Bahawa diri ku insan biasa
Dm                    Am
 Tak sempurna dan berharta
F                        E
 Ingin memetik wahai mu bunga


Am                  E
 Aku berserah pada Tuhan
Dm                   Am
 Agar diri ku kau lupakan
Dm                    Am
 Memang sudah jadi suratan
F            E           Am
 Kisah yang lalu jadi tauladan



*Intro tab (lebih kurang camni la..)

E|--8--5--------------|------------------------|--
B|--------5-----------|----------5-------------|--
G|-----------5--------|-------5-----5/7--5-----|--
D|--------------7--5--|--5/7----------------5--|--
A|--------------------|------------------------|--
E|--------------------|------------------------|--


E|------------------------|--8--5--------------|--
B|----------5-------------|--------5-----------|--
G|-------5-----5/7--5-----|-----------5--7--5--|--
D|--5/7----------------5--|--------------------|--
A|------------------------|--------------------|--
E|------------------------|--------------------|--


E|------------------------|------------------------|--
B|----------5-------------|----------5-------------|--
G|-------5-----5/7--5-----|-------5-----5/7--5-----|--
D|--5/7----------------5--|--5/7----------------5--|--
A|------------------------|------------------------|--
E|------------------------|------------------------|--

                                            vibrato
E|-------------1------|-----------0------|--0----------|--
B|----------1---------|--------0---------|--1----------|--
G|-------2------------|-----1------------|--2----------|--
D|--5\3---------------|--2---------------|--2----------|--
A|--------------------|------------------|--0----------|--
E|--------------------|------------------|-------------|--

Videos

Advertisement

Facebook MalayOLGA

Comments

paizz
paizz
29 Feb 2012 12:43 am
bezz..tpi law ade intro die lagi cun..:)
takakunai
takakunai
3 Mar 2012 8:28 am
intro tab dah diupdate atas permintaan bro paizz :)

Insert Comment

Name
Email
Website
Message
MalayOLGA - Malaysian Online Guitar Archive
User Name:

Password:


Forgotten Password
Register

Related Links

Sponsors

Advertise Here!

Latest Comments

Recent Visitors

blog counter

View My Stats

Page rendered in 0.5920 seconds