Bitcoin Income
Advertise on this space for USD3 per month. Click here.

Search


Disclaimer

This guitar tabs & chords is the author's own work and represents their interpretation of the song. You may only use this file for private study, scholarship, or research. Please support Malaysia music & entertainment industries and buy original CD and movies.

Encik Mimpi - Rindukanlah

(List all songs by Encik Mimpi)
submitted by AliefOice on 15 Jan 2014 12:00 AM
Total views : 42723   Show Videos
  • Currently 3.50/5

Rating: 3.5/5 (2 votes cast) Please 'log in' to cast vote.


Encik Mimpi - Rindukanlah (Alief.O.Ice.TAB)

(/) Slide Up  (\) Slide Down  (h) Hammer On  (p) Pull Off  (b) Bend (r) Release (v) Vibrato


INTRO:  
Em  D  C  G  D
Em  D  C  D  D D

solo 

E|--------------------------------------------------------------------------------------
B|-----------------------------------8/12-12/15-15/17/12-10-8-7-8-------8h10r8-7-8-8/10-
G|---9-11-12v--12h14r12--11------7/9------------------------------7-7/9-----------------
D|-9------------------------12-9--------------------------------------------------------
A|--------------------------------------------------------------------------------------
E|--------------------------------------------------------------------------------------

E|-------------------
B|-----8-7-----------
G|-7-7---------------
D|---------9p7-5-5/7-
A|-------------------
E|-------------------

G                   D
Ku Benar-Benar Sayang 
        Em           D
Pada Dirimu Oh Kasihku 
         C           G
Janganlah Engkau Ragu 
          D
Pada Diriku

G                      D
Dan Ku Berkelana Mencari 
       Em                D
Harapan Yang Kita Impikan.. 
            C             G
Dari Terbitnya Sang Suria... 
                D
Hingga Tenggelam..

            Em             D
Dan Ku Ingin Cinta Sejatimu
            C              G
Dan Ku Ingin Harapan Hatimu
               Em           D 
Oh Janganlah Engkau Bersedih
         C               D     Em 
Oh Ikhlas-Ikhlaskanlah.. Hatimu

Em                     D
Rindu-rindukanlah Diriku 
    Em              D
Sepanjang Hari-Harimu 
         C         D     Em
Sayangku Ku Adalah Milikmu 
          C             D
Sayangku Ku  Adalah 
       G           D  Em  D 
Milikmu Yang Kau Rindu..    
C           D       G                D Em    
DOa. .Doakanlah Diriku Di Dalam Hatimu 
              D  C
Di Dalam Nafasmu 
     D               G
Sepanjang Hari-harimu

G                   D
Ku Benar-Benar Sayang 
        Em          D
Pada Dirimu Oh Kasihku 
          C          G
Janganlah Engkau Ragu 
          D
Pada Diriku

            Em            D
Dan Ku Ingin Cinta Sejatimu
            C             G
Dan Ku Ingin Harapan Hatimu
              Em           D 
Oh Janganlah Engkau Bersedih
         C               D     Em 
Oh Ikhlas-Ikhlaskanlah.. Hatimu

Em                     D
Rindu-rindukanlah Diriku 
   Em               D
Sepanjang Hari-Harimu 
         C          D    Em
Sayangku Ku Adalah Milikmu 

Em  D  C  G ..Em  D  C  D  Em Em

E|------------------------------------------------
B|-12------10-7---8---7---------------------------
G|----12-9------7---9---7---------------7---------
D|------------------------9-7/9-9/7-9-9---9p7-5-5-
A|------------------------------------------------
E|------------------------------------------------


E|---------10----10-12-10-12-14-10-10--15-15-14-12---------------------19-17-15-14-17-17-15-14-------------
B|-12---------10-----------------------------------15---8-7-8-10-------------------------------17-15b17b15-
G|----12-9-------------------------------------------------------7-7/9-------------------------------------
D|---------------------------------------------------------------------------------------------------------
A|---------------------------------------------------------------------------------------------------------
E|---------------------------------------------------------------------------------------------------------

            Em            D
Dan Ku Ingin Cinta Sejatimu
            C            G
Dan Ku Ingin Harapan Hatimu
              Em          D 
Oh Janganlah Engkau Bersedih
         C               D        Em 
Oh Ikhlas-Ikhlaskanlah.. Hatimu (woo)

            Em            D
Dan Ku Ingin Cinta Sejatimu
           C              G
Dan Ku Ingin Harapan Hatimu
               Em         D 
Oh Janganlah Engkau Bersedih
          C            D
Oh Jangan-Janganlah Kau
        C               D     Em                
Bersedih dan Hatimu..Kekasih

Em                         D
Rindu-rindukanlah Diriku 
     Em                   D
Sepanjang Hari-Harimu 
          C        D             Em
Sayangku Ku Adalah Milikmu.. (Huu)

------------------------------------------------------------------------------------------

MINTA MAAF JIKA TERDAPAT KESALAHAN DI DALAM KORD DAN TAB SOLO YANG DI BERI
HARAP DAPAT MEMBANTU ANDA -ALIEF.O.ICE-

Videos

Video
This song has video associated with it. You need to login to view the video

Advertisement

Pantas Sifir

Facebook MalayOLGA

Comments

MalayOLGA - Malaysian Online Guitar Archive

Sponsors

Advertise Here!

Recent Visitors

blog counter

View My Stats

Page rendered in 0.6176 seconds