Bitcoin Income
Advertise on this space for USD3 per month. Click here.

Search


Disclaimer

This guitar tabs & chords is the author's own work and represents their interpretation of the song. You may only use this file for private study, scholarship, or research. Please support Malaysia music & entertainment industries and buy original CD and movies.

Wali - Doaku Untukmu Sayang

(List all songs by Wali)
submitted by AliefOice on 28 Jan 2014 12:00 AM
Total views : 19370   Show Videos
  • Currently 3.00/5

Rating: 3.0/5 (1 vote cast) Please 'log in' to cast vote.


(/) Slide Up  (\) Slide Down  (h) Hammer On  (p) Pull Off  (b) Bend (r) Release (v) Vibrato

TUNE: E A D G B E

[intro] A E F#m C#m  D   E 

E|--------------------------------------------------------------------------------9-
B|-----------------------------------------------------7-7----9h10-9-7-9-10-9-------
G|-------6---6-9-9------------------6-6--------6-7-6-7------------------------------
D|-7-7-9---9---------7-7-6-7----6-7--------9-9--------------------------------------
A|----------------------------------------------------------------------------------
E|----------------------------------------------------------------------------------


A               Bm 
Kau mau apa, Pasti kan ku beri 
E                A 
Kau minta apa, Akan ku turuti 
   F#m       D       E         A 
Walau harus aku, terlelah dan letih 
 F#m       D      E 
Ini demi kamu sayang 

[Chorus] 
        A           E 
Aku tak akan berhenti 
      F#m         C#m 
Menemani dan menyayangimu 
D          A    Bm            E 
Hingga matahari Tak terbit lagi 

         A         E 
Bahkan bila aku mati 
         F#m      C#m 
Ku kan berdoa pada Ilahi 
D           A 
Tuk satukan kami  
Bm         E     A 
Di surga....  nanti 

[int]  E F#m C#m  D  E 

E|-------------------------------------------------------------------------------
B|---------------------------------------9-10-9-7----------7-7---9-10-9-7-9-10-9-
G|-------6---6-9-9-------------------6------------9-7-6-7------------------------
D|-7-7-9---9---------7-7-6-7---6-7-----------------------------------------------
A|-------------------------------------------------------------------------------
E|-------------------------------------------------------------------------------

A              Bm 
Tahukah kamu, apa yang ku pinta 
E                A 
Di setiap doa sepanjang hariku 
   F#m        D      E         A 
Tuhan tolong aku, Tolong jaga Dia 
  F#m        D     E 
Tuhan aku sayang Dia 

[chorus] 
          A         E 
Aku tak akan berhenti 
     F#m         C#m 
Menemani dan menyayangimu 
D          A     Bm           E 
Hingga matahari Tak terbit lagi 

         A         E 
Bahkan bila aku mati 
          F#m      C#m 
Ku kan berdoa pada Ilahi 
D           A 
Tuk satukan kami  
Bm         E     A 
Di surga....  nanti 

[solo]   A  E  F#m  C#m  D  A  E 

E|------9--10h12----12-12b14p12---17-16-17-14-17----17-----17v-------17v--------
B|---------------12------------------------------17----15------15-14-----14-12v-
G|-0/9--------------------------------------------------------------------------
D|------------------------------------------------------------------------------
A|------------------------------------------------------------------------------
E|------------------------------------------------------------------------------

E|---------------2------2-3-5-3-5/7-7/9---
B|---2-3-----3-5---3----------------------
G|-4-----4--------------------------------
D|----------------------------------------
A|----------------------------------------
E|----------------------------------------

     F#m       D     E        A 
Tuhan tolong aku, Juga jaga Dia 
    F#m          D     E 
Tuhan Ku-pun sayang Dia 

[chorus] 
          A         E 
Aku tak akan berhenti 
     F#m         C#m 
Menemani dan menyayangimu 
D          A     Bm           E 
Hingga matahari Tak terbit lagi 

         A         E 
Bahkan bila aku mati 
          F#m      C#m 
Ku kan berdoa pada Ilahi 
D           A 
Tuk satukan kami  
Bm         E             A
Di surga....  naaaannnnnti 
------------------------------------------------------------------------------------------

MINTA MAAF JIKA TERDAPAT KESALAHAN DI DALAM KORD DAN TAB SOLO YANG DI BERI
HARAP DAPAT MEMBANTU ANDA -ALIEF.O.ICE-

Videos

Video
This song has video associated with it. You need to login to view the video

Advertisement

Pantas Sifir

Facebook MalayOLGA

Comments

MalayOLGA - Malaysian Online Guitar Archive

Sponsors

Advertise Here!

Recent Visitors

blog counter

View My Stats

Page rendered in 0.6430 seconds