Pantas Sifir
Advertise on this space for USD3 per month. Click here.

Search


Disclaimer

This guitar tabs & chords is the author's own work and represents their interpretation of the song. You may only use this file for private study, scholarship, or research. Please support Malaysia music & entertainment industries and buy original CD and movies.

Repvblik - Sandiwara Cinta (TAB)

(List all songs by Repvblik)
submitted by AliefOice on 28 Jan 2014 12:00 AM
Total views : 75582   Show Videos
  • Currently 3.00/5

Rating: 3.0/5 (1 vote cast) Please 'log in' to cast vote.


(/) Slide Up  (\) Slide Down  (h) Hammer On  (p) Pull Off  (b) Bend (r) Release (v) Vibrato

[intro] C D G  Am D

E|-------10----12---12-10---------------------10-12------------
B|-12-13------------------10-12-13-12---12-13-------13---12-10-
G|----------12-------------------------------------------------
D|-------------------------------------------------------------
A|-------------------------------------------------------------
E|-------------------------------------------------------------

      G        D      Em
aku tahu ini semua tak adil
      Am                 D
aku tahu ini sudah terjadi
           G       D        Em
mau bilang apa aku pun tak sanggup
         Am                  D
air mata pun tak lagi mau menetes

      G         D      Em
alasannya seringkali ku dengar
      Am                   D
alasannya seringkali kau ucap
          G          D      Em
kau dengannya seakan ku tak tahu
          Am                     D         G
sandiwara apa yang telah kau lakukan kepadaku

[chorus]
           C      D          G
jujurlah sayang aku tak mengapa
        Am    D             G
biar semua jelas telah berbeda
         C      D            Em
jika nanti aku yang harus pergi
       Am   D           G
ku terima walau sakit hati

          G            D   Em
mungkin ini jalan yang engkau mau
         Am                     D
mungkin ini jalan yang kau inginkan
          G          D     Em
kau dengannya seakan ku tak tahu
          Am  G C
sandiwara apa 
          Am  G C
ceritanya apa
       D
aku tahu

[chorus]
           C      D          G
jujurlah sayang aku tak mengapa
        Am    D             G
biar semua jelas telah berbeda
         C      D            Em
jika nanti aku yang harus pergi
       Am   D           G
ku terima walau sakit hati

[solo] C D G
       Am D G


E|-------------------10-----------------------------------------------10--------------
B|-----8--10-8-10/12----13-12-8-10-8-----------10b12-10b12r10-8-10/12----13-12-8-10-8-
G|-7/9--------------------------------------------------------------------------------
D|-------------------------------------9-7-5------------------------------------------
A|------------------------------------------------------------------------------------
E|------------------------------------------------------------------------------------

E|-------10-12-12/15-14-12-17/19-17-15-
B|-10/12-------------------------------
G|-------------------------------------
D|-------------------------------------
A|-------------------------------------
E|-------------------------------------

[chorus]
           C      D          G
jujurlah sayang aku tak mengapa
        Am    D             G
biar semua jelas telah berbeda
         C      D            Em
jika nanti aku yang harus pergi
       Am   D           G
ku terima walau sakit hati
       Am   D           G
ku terima walau sakit hati

------------------------------------------------------------------------------------------

MINTA MAAF JIKA TERDAPAT KESALAHAN DI DALAM KORD DAN TAB SOLO YANG DI BERI
HARAP DAPAT MEMBANTU ANDA -ALIEF.O.ICE-

Videos

Video
This song has video associated with it. You need to login to view the video

Advertisement

Pantas Sifir

Facebook MalayOLGA

Comments

MalayOLGA - Malaysian Online Guitar Archive

Sponsors

Advertise Here!

Recent Visitors

blog counter

View My Stats

Page rendered in 0.6954 seconds