Bitcoin Income
Advertise on this space for USD3 per month. Click here.

Search


Disclaimer

This guitar tabs & chords is the author's own work and represents their interpretation of the song. You may only use this file for private study, scholarship, or research. Please support Malaysia music & entertainment industries and buy original CD and movies.

Hafiz Af7 - Salahkah

(List all songs by Hafiz Af7)
submitted by AliefOice on 10 Feb 2014 01:51 PM
Total views : 8167   Show Videos
  • Currently 3.00/5

Rating: 3.0/5 (1 vote cast) Please 'log in' to cast vote.


rossa ft hafiz ~ GUITAR VERSION (ori SOUND) UNTUK KORD YANG LEBIH MUDAH LIHAT SELEPAS KORD INI DI BAWAH~

tuning: E A D G B E

(/) Slide Up  (\) Slide Down  (h) Hammer On  (p) Pull Off  (b) Bend (r) Release (v) Vibrato

Intro: (G#m F# B)X2 C#m Eb G#m E Eb

E|--------------------11------------------14---12-11-
B|-12---11-12-14--------------12-11-12-14------------
G|-----------------11--------------------------------
D|---------------------------------------------------
A|---------------------------------------------------
E|---------------------------------------------------

E|-------------------------------------------------------------
B|-------------------------------------------------------------
G|---6/9---8-6-------------------------------------------------
D|-6-----------9--8------6/11---9p8h9----6----8-9-6-9-8----6-5-
A|---------------------6---------------------------------------
E|-------------------------------------------------------------

hafiz-

G#m Eb G#m
Salahkah ku bila
G# C#m
mencintamu sepenuh hati
Eb G#m
sedang ku tahu pasti
C#m Eb
keluarga tak merestui

Rossa-

G#m Eb G#m
Biarkan dunia berputar
G# C#m
seiring waktu berjalan
F# B
sampai saat nanti tiba
E C#m
waktu merestui cinta yang terlarang
Eb
untuk kita berdua

G#m Ebm
Dari jauh ku berlari
E B
mengejar mimpi-mimpi
C# Ebm G#m Eb
berat rasanya ku dapatkan semua

Hafiz-

G#m Ebm
Dari situ ku sedari
E B
mungkinkah saat nanti
C#m Ebm G#m
cinta kita berdua bisa ku miliki

C# F# B E Ebm Eb

Salahkah ku bila mencintaimu
mencinta sepenuh hati

Rossa + Hafiz-

G#m Eb G#m
Biarkan dunia berputar
G# C#m
seiring waktu berjalan
F# B
sampai saat nanti tiba
E C#m
waktu merestui cinta yang terlarang
Eb
untuk kita berdua

Rossa-

G#m Ebm
Dari jauh ku berlari
E B
mengejar mimpi-mimpi
C# Ebm G#m Eb
berat rasanya ku dapatkan semua

Hafiz
G#m Ebm
Dari situ ku sedari
E B
mungkinkah saat nanti
C#m Ebm G#m
cinta kita berdua bisa ku miliki

C#m
Salahkah.. salahkah
C#m
Salahkah.. salahkah ku..

B
Salahkah.. salahkah
B
Salahkah.. salahkah ku..

G#m X2  Bb X2

SOLO:
E|--------------------------------------------------------------------------
B|--------------------------------------------------------------------------
G|-9-8----6-9--8-6----9-8----6-9---8-6--------8-6---4-8-6-4---8-6---4-8-6-4-
D|--------------------------------------------------------------------------
A|--------------------------------------------------------------------------
E|--------------------------------------------------------------------------

E|-----------------------------6-7-6h7p6---6-7-6h7p6h7p6---6-7---7/11-
B|---------------------------------------9---------------9-----9------
G|-4-6-----4-4-4-6---3-4----------------------------------------------
D|-----6-----------6--------------------------------------------------
A|--------------------------------------------------------------------
E|--------------------------------------------------------------------

Bbm             Fm
Dari jauh ku berlari
F# C#
mengejar mimpi-mimpi
Eb Fm Bbm F
berat rasanya ku dapatkan semua

Bbm             Fm
Dari situ ku sedari
F# C#
mungkinkah saat nanti
Eb Fm Bbm
cinta kita berdua bisa ku miliki ..............huuuuuuu

--------------------------------------------------------------------------------------------------------
easy chord ~ TUNING : D# G# C# F# A# D#
--------------------------------------------------------------------------------------------------------
Intro: (Am G C)X2 Dm E Am F E

Hafiz
Am E Am
Salahkah ku bila
A Dm
mencintamu sepenuh hati
E Am
sedang ku tahu pasti
Dm E
keluarga tak merestui

Rossa
Am E Am
Biarkan dunia berputar
A Dm
seiring waktu berjalan
G C
sampai saat nanti tiba
F Dm
waktu merestui cinta yang terlarang
E
untuk kita berdua

Am Em
Dari jauh ku berlari
F C
mengejar mimpi-mimpi
D Em Am E
berat rasanya ku dapatkan semua

Hafiz
Am Em
Dari situ ku sedari
F C
mungkinkah saat nanti
Dm Em Am
cinta kita berdua bisa ku miliki

D G C F Em E

Salahkah ku bila mencintaimu
mencinta sepenuh hati

Rossa + Hafiz
Am E Am
Biarkan dunia berputar
A Dm
seiring waktu berjalan
G C
sampai saat nanti tiba
F Dm
waktu merestui cinta yang terlarang
E
untuk kita berdua

Rossa
Am Em
Dari jauh ku berlari
F C
mengejar mimpi-mimpi
D Em Am E
berat rasanya ku dapatkan semua

Hafiz
Am Em
Dari situ ku sedari
F C
mungkinkah saat nanti
Dm Em Am
cinta kita berdua bisa ku miliki

Dm
Salahkah.. salahkah
Dm
Salahkah.. salahkah ku..

C
Salahkah.. salahkah
C
Salahkah.. salahkah ku..

Am x2   B x2

Bm F#m
Dari jauh ku berlari
G D
mengejar mimpi-mimpi
Em F#m Bm F#
berat rasanya ku dapatkan semua

Bm F#m
Dari situ ku sedari
G D
mungkinkah saat nanti
Em F#m Bm
cinta kita berdua bisa ku miliki ....huuu

------------------------------------------------------------------------------------------

MINTA MAAF JIKA TERDAPAT KESALAHAN DI DALAM KORD DAN TAB SOLO YANG DI BERI
HARAP DAPAT MEMBANTU ANDA -ALIEF.O.ICE-

Videos

Video
This song has video associated with it. You need to login to view the video

Advertisement

Pantas Sifir

Facebook MalayOLGA

Comments

MalayOLGA - Malaysian Online Guitar Archive

Sponsors

Advertise Here!

Recent Visitors

blog counter

View My Stats

Page rendered in 0.9679 seconds