Bitcoin Income
Advertise on this space for USD3 per month. Click here.

Search


Disclaimer

This guitar tabs & chords is the author's own work and represents their interpretation of the song. You may only use this file for private study, scholarship, or research. Please support Malaysia music & entertainment industries and buy original CD and movies.

Spring - Sejiwa (SOLO TAB)

(List all songs by Spring)
submitted by AliefOice on 4 Mar 2014 01:53 AM
Total views : 16678
  • Currently 3.00/5

Rating: 3.0/5 (1 vote cast) Please 'log in' to cast vote.


(/) Slide Up  (\) Slide Down  (h) Hammer On  (p) Pull Off  (b) Bend (r) Release (v) Vibrato

INTRO
E|-------------------------------------------------------------------------------
B|-------5-6-5----------------------3-3-3-5-6-5-6-8/5---5-5-5/10---10-12-13------
G|--------------7-5-4-5-7-5---4-4---------------------------------------------10-
D|-------------------------------------------------------------------------------
A|-7/0---------------------------------------------------------------------------
E|-------------------------------------------------------------------------------

E|-----------------------10-----------------------------------------11------------------
B|-10-12-13-13-12--12-13------13-12-10---12-13-12--10----12-13-12----------12-10-9---10-
G|---------------------------------------------------------------------------------9----
D|--------------------------------------------------------------------------------------
A|--------------------------------------------------------------------------------------
E|--------------------------------------------------------------------------------------

SOLO TENGAH 

E|----------------------------------------------------------------------------------
B|-13/10----------------------------------------------------------------------------
G|-14/10---10-10-9-7-7---------------7-7----------------7-9-10-9---10-10/12-10-9-10-
D|---------------------10-9---9-9-10-----7-6-----7-9-10-----------------------------
A|---------------------------------------------7------------------------------------
E|----------------------------------------------------------------------------------

E|---------------------------------------------15-13-12----12-----------------
B|-10-10-10--12-12-12--13-13--8---8-10-10/12-8----------15----13-10/12--13-13-
G|----------------------------------------------------------------------------
D|----------------------------------------------------------------------------
A|----------------------------------------------------------------------------
E|----------------------------------------------------------------------------

E|-12-15-13---12----12-13----12----12-13-12--------------------------------------------------
B|-12------------15-------------15----------15-13-12---10-9-----9/12--10-10------------------
G|-12---------------------------------------------------------9--------------9-9-------------
D|-------------------------------------------------------------------------------10-10-9-7-7-
A|-------------------------------------------------------------------------------------------
E|-------------------------------------------------------------------------------------------

E|-12-10----------------10---
B|-------13-12-10-12-13----9-
G|---------------------------
D|---------------------------
A|---------------------------
E|---------------------------

------------------------------------------------------------------------------------------
FB PAGEm ~ https://www.facebook.com/MeTaLeAf5
LIKE N SUBSCRIBE 4 MORE VDO ^_^ ~
------------------------------------------------------------------------------------------

MINTA MAAF JIKA TERDAPAT KESALAHAN DI DALAM KORD DAN TAB SOLO YANG DI BERI
HARAP DAPAT MEMBANTU ANDA -ALIEF.O.ICE-

Videos

Advertisement

Pantas Sifir

Facebook MalayOLGA

Comments

MalayOLGA - Malaysian Online Guitar Archive

Sponsors

Advertise Here!

Recent Visitors

blog counter

View My Stats

Page rendered in 0.9268 seconds