Bitcoin Income
Advertise on this space for USD3 per month. Click here.

Search


Disclaimer

This guitar tabs & chords is the author's own work and represents their interpretation of the song. You may only use this file for private study, scholarship, or research. Please support Malaysia music & entertainment industries and buy original CD and movies.

Dadali - Disaat Sendiri (SOLO TAB)

(List all songs by Dadali)
submitted by AliefOice on 4 Mar 2014 03:09 AM
Total views : 13905
  • Currently 3.00/5

Rating: 3.0/5 (1 vote cast) Please 'log in' to cast vote.


(/) Slide Up  (\) Slide Down  (h) Hammer On  (p) Pull Off  (b) Bend (r) Release (v) Vibrato

INTRO
E|----------------------------12-14-14/16-------------------------
B|-14-12-14v-----15-14-15v----------------14-15-14h15p14--12-14---
G|----------------------------------------------------------------
D|----------------------------------------------------------------
A|----------------------------------------------------------------
E|----------------------------------------------------------------

E|----10-9----9-10v---9------9-10-9---14-13h14p13-
B|---------12-----------12------------------------
G|-11---------------------------------------------
D|------------------------------------------------
A|------------------------------------------------
E|------------------------------------------------

SOLO TENGAH

E|---------------9---------------------------------------------------------------------------
B|---7-9-10-9-10---7---9-10-9--------------------7-9-10-9-10v------7-10-9---7h9p7-6-7-9-10---
G|-6----------------------------9--6-9-6-5-----6-----------------6---------------------------
D|-------------------------------------------------------------------------------------------
A|-------------------------------------------------------------------------------------------
E|-------------------------------------------------------------------------------------------

------------------------------------------------------------------------------------------
FB PAGEm ~ https://www.facebook.com/MeTaLeAf5
LIKE N SUBSCRIBE 4 MORE VDO ^_^ ~
------------------------------------------------------------------------------------------

MINTA MAAF JIKA TERDAPAT KESALAHAN DI DALAM KORD DAN TAB SOLO YANG DI BERI
HARAP DAPAT MEMBANTU ANDA -ALIEF.O.ICE-

Videos

Advertisement

Pantas Sifir

Facebook MalayOLGA

Comments

MalayOLGA - Malaysian Online Guitar Archive

Sponsors

Advertise Here!

Recent Visitors

blog counter

View My Stats

Page rendered in 0.9487 seconds