Bitcoin Income
Advertise on this space for USD3 per month. Click here.

Search


Disclaimer

This guitar tabs & chords is the author's own work and represents their interpretation of the song. You may only use this file for private study, scholarship, or research. Please support Malaysia music & entertainment industries and buy original CD and movies.

Firman - Kehilangan (SOLO TAB)

(List all songs by Firman)
submitted by AliefOice on 6 Mar 2014 05:56 PM
Total views : 29298
  • Currently 3.50/5

Rating: 3.5/5 (2 votes cast) Please 'log in' to cast vote.


(/) Slide Up  (\) Slide Down  (h) Hammer On  (p) Pull Off  (b) Bend (r) Release (v) Vibrato

INTRO
E|-7-10-9-6-7----------------------
B|--------------7p5h7----------8-7-
G|---------------------7-7/9-------
D|---------------------------------
A|---------------------------------
E|---------------------------------

SOLO TENGAH
E|--------------------------------------------------
B|------------------------------------------5-5/8-7-
G|-4---4-7-6-4---4-------------3----4---4-7---------
D|---4---------5---4-----2-4-5--------4-------------
A|--------------------------------------------------
E|--------------------------------------------------

E|----------------------------------------------------------------------------------
B|---------8-7-8-7h8p7---------------8-7-8-7h8p7-----------------8-8/12-11-12-12/14-
G|-7---7-9-------------9-7/6-6---6-9-------------9-7-6-6/7---7-9--------------------
D|---7-------------------------7---------------------------7------------------------
A|----------------------------------------------------------------------------------
E|----------------------------------------------------------------------------------

E|----------------------------------------12-12/14---12/14-12-------
B|-14-15-14-12-------12-11-12-14-15-14-15---------------------15-14-
G|----------------11------------------------------------------------
D|------------------------------------------------------------------
A|------------------------------------------------------------------
E|------------------------------------------------------------------

------------------------------------------------------------------------------------------
FB PAGEm ~ https://www.facebook.com/MeTaLeAf5
LIKE N SUBSCRIBE 4 MORE VDO ^_^ ~
------------------------------------------------------------------------------------------

MINTA MAAF JIKA TERDAPAT KESALAHAN DI DALAM KORD DAN TAB SOLO YANG DI BERI
HARAP DAPAT MEMBANTU ANDA -ALIEF.O.ICE-

Videos

Advertisement

Pantas Sifir

Facebook MalayOLGA

Comments

MalayOLGA - Malaysian Online Guitar Archive

Sponsors

Advertise Here!

Recent Visitors

blog counter

View My Stats

Page rendered in 0.8668 seconds