Bitcoin Income
Advertise on this space for USD3 per month. Click here.

Search


Disclaimer

This guitar tabs & chords is the author's own work and represents their interpretation of the song. You may only use this file for private study, scholarship, or research. Please support Malaysia music & entertainment industries and buy original CD and movies.

Ipang - Tentang Cinta (SOLO TAB)

(List all songs by Ipang)
submitted by AliefOice on 6 Mar 2014 10:30 PM
Total views : 11178
  • Currently 3.00/5

Rating: 3.0/5 (1 vote cast) Please 'log in' to cast vote.


(/) Slide Up  (\) Slide Down  (h) Hammer On  (p) Pull Off  (b) Bend (r) Release (v) Vibrato

INTRO
E|-10v---7--------10-7------10v----7------------
B|---------10---8------10------------10---8-7---
G|--------------------------------------------9-
D|----------------------------------------------
A|----------------------------------------------
E|----------------------------------------------

E|-10v---7--------10-7------10v----7------------
B|---------10---8------10------------10---8-7---
G|--------------------------------------------9-
D|----------------------------------------------
A|----------------------------------------------
E|----------------------------------------------

SOLO
E|-----------------2--2-3-------------------------------
B|-----3------------------3-----------------------------
G|---------4-2-4--------------4-4-2-2h4---0h2---0-------
D|-5/6----------------------------------------4---4-0h2-
A|------------------------------------------------------
E|------------------------------------------------------

e|------------------------------------------------5-7-8p7-5-7--10--8--8p7----7--
B|----------------------------------5h7p5---5-7-8-------------------------10----
G|--------------------4h5p4---4-5-7-------7-------------------------------------
D|------4h5p4---4-5-7-------7---------------------------------------------------
A|--5-7-------7-----------------------------------------------------------------
E|------------------------------------------------------------------------------

e|--8p7----7-----------------------------
B|------10----10-8-7---8p7---------------
G|-------------------9-----9-7-9p7---7-9-
D|---------------------------------9-----
A|---------------------------------------
E|---------------------------------------

E|---------------------------------------------------------------------
B|-10-10-10-8-7-8---7------------------------8---10-10/12-10-8-7-8p7---
G|----------------9---7-9---7------------7-----7---------------------9-
D|------------------------9---7-9----7-9---9---------------------------
A|--------------------------------10-----------------------------------
E|---------------------------------------------------------------------

E|------------------------------------------------------
B|-----8-7-----------------------------8-7-8/10-8-7-----
G|---------9-7-9/11-9-9-7---7-9---------------------7-5-
D|-7/9--------------------9--------7/9------------------
A|------------------------------------------------------
E|------------------------------------------------------

------------------------------------------------------------------------------------------
FB PAGEm ~ https://www.facebook.com/MeTaLeAf5
LIKE N SUBSCRIBE 4 MORE VDO ^_^ ~
------------------------------------------------------------------------------------------

MINTA MAAF JIKA TERDAPAT KESALAHAN DI DALAM KORD DAN TAB SOLO YANG DI BERI
HARAP DAPAT MEMBANTU ANDA -ALIEF.O.ICE-

Videos

Advertisement

Pantas Sifir

Facebook MalayOLGA

Comments

MalayOLGA - Malaysian Online Guitar Archive

Sponsors

Advertise Here!

Recent Visitors

blog counter

View My Stats

Page rendered in 0.6378 seconds