Pantas Sifir
Advertise on this space for USD3 per month. Click here.

Search


Disclaimer

This guitar tabs & chords is the author's own work and represents their interpretation of the song. You may only use this file for private study, scholarship, or research. Please support Malaysia music & entertainment industries and buy original CD and movies.

Ost Heartstring - Because I Miss You (SOLO TAB)

(List all songs by Ost Heartstring)
submitted by AliefOice on 11 Mar 2014 11:47 PM
Total views : 8442   Show Videos
  • Currently 3.00/5

Rating: 3.0/5 (1 vote cast) Please 'log in' to cast vote.


(/) Slide Up  (\) Slide Down  (h) Hammer On  (p) Pull Off  (b) Bend (r) Release (v) Vibrato

INTRO
C Am Dm G

Verse 1
C Em - F G C - F G Em C - F G

TAB
E|-------------------------------------------------------------------------------
B|-----------------8-8/10-8h10p8-----------------------------5--6-8-10--8-10-12--
G|-5-7-7/9----9-10---------------7---5h7p5/4h5--4-5-7/9-7------------------------
D|-------------------------------------------------------------------------------
A|-------------------------------------------------------------------------------
E|-------------------------------------------------------------------------------

E|---------------------------------------------
B|-10-12-13-12-10-8-10---5-6-------------------
G|-----------------------------5-7----5--7/9-7-
D|---------------------------7------7----------
A|---------------------------------------------
E|---------------------------------------------

Verse 2
C Em - F G C - F G Em C - F G

TAB
E|--------------------------------------------------------------------------------------------
B|----------------8-8/10-10/12-8-10-12-12/13---12-13-13/15-8---3/5-6--8-8/10---9-10--12-12/13-
G|-5-7-7/9---9-10-----------------------------------------------------------------------------
D|--------------------------------------------------------------------------------------------
A|--------------------------------------------------------------------------------------------
E|--------------------------------------------------------------------------------------------

E|---------------------------------------7-8-10/12-10-
B|-12--10-8-10----5-6-5----------------8--------------
G|----------------------7-5-5/7----5/7----------------
D|----------------------------------------------------
A|----------------------------------------------------
E|----------------------------------------------------

Chorus 1
C G - Am Em - F Em - Dm G

TAB
E|-------------------------------------------------------------------------
B|--------------------5/8-8/10-8-------------------------------------------
G|-5-7-7/9--9-7h9p7-5------------5h7p5/4-5-5-7-7/9----5h7p5-4---5p4--------
D|-------------------------------------------------------------------7-5---
A|-------------------------------------------------------------------------
E|-------------------------------------------------------------------------

E|-----------------------------------------------
B|-6/8-6-5-------6-8-10-8/10-12-13-13---13/15-12-
G|---------5-7-9---------------------------------
D|-----------------------------------------------
A|-----------------------------------------------
E|-----------------------------------------------

Chorus 2
C G - Am Em - F Em - Dm G

TAB
E|---------------------------------------------------------------------------
B|--------------------8-8-10-8---10-12-12/13-13---13-13/15-13-12---8/10-8--6-
G|-5-7-7/9--9-9-9-7-5--------------------------------------------------------
D|---------------------------------------------------------------------------
A|---------------------------------------------------------------------------
E|---------------------------------------------------------------------------

E|----------------------------------------------------------------
B|-8-8/10-10-8--6-6/8-8-10-8----6h8p6-5--6-5-6--3/6-8-6-5---------
G|----------------------------------------------------------7-5-7-
D|----------------------------------------------------------------
A|----------------------------------------------------------------
E|----------------------------------------------------------------

ENDING
C Am Dm G

TAB
E|-------------------6/8-7----8/10-8-7------8---------------------------
B|-3/6-5----5/8-6-5--------8-----------10-----10p8-10---8p6-5-6p5-------
G|-------5--------------------------------------------------------7-5-7-
D|----------------------------------------------------------------------
A|----------------------------------------------------------------------
E|----------------------------------------------------------------------

last part
E|-5/8-7-----------------------------------
B|-------8-5-------------------------------
G|-----------7-5-5-------------------------
D|-----------------5-----------------------
A|-------------------7-5-3--3-2h3p2h3ph3p2-
E|-----------------------------------------

HABISKAN DENGAN CHORD C

------------------------------------------------------------------------------------------
FB PAGEm ~ https://www.facebook.com/MeTaLeAf5
LIKE N SUBSCRIBE 4 MORE VDO ^_^ ~
------------------------------------------------------------------------------------------

MINTA MAAF JIKA TERDAPAT KESALAHAN DI DALAM KORD DAN TAB SOLO YANG DI BERI
HARAP DAPAT MEMBANTU ANDA -ALIEF.O.ICE-

Videos

Video
This song has video associated with it. You need to login to view the video

Advertisement

Pantas Sifir

Facebook MalayOLGA

Comments

MalayOLGA - Malaysian Online Guitar Archive

Sponsors

Advertise Here!

Recent Visitors

blog counter

View My Stats

Page rendered in 0.6402 seconds