Pantas Sifir
Advertise on this space for USD3 per month. Click here.

Search


Disclaimer

This guitar tabs & chords is the author's own work and represents their interpretation of the song. You may only use this file for private study, scholarship, or research. Please support Malaysia music & entertainment industries and buy original CD and movies.

Drama Band - Cerita Dia

(List all songs by Drama Band)
submitted by AliefOice on 30 Mar 2014 04:11 AM
Total views : 25269   Show Videos
  • Currently 0/5

Rating: 0/5 (0 votes cast) Please 'log in' to cast vote.


Drama Band - Cerita Dia chords and lyric

Standard guitar tuning : E A D G B E

Intro: E F# Gm  Eb  Abm  E  F#  B

Intro Solo:
(/) Slide Up  (\) Slide Down  (h) Hammer On  (p) Pull Off  (b) Bend (r) Release (v) Vibrato

E|----------------------------------------------------------------------------------------
B|-9-9-9-9-9-12-12-11-11-11-11-11-8-8-8-8----11-11-11-11-11-12-14-12-12-12-12-12-11-12-14-
G|-6-6-6-6-6-9--9--8--8--8--8--8--5-5-5-5----8--8--8--8--8--9--11-9--9--9--9--9--8--9--11-
D|----------------------------------------------------------------------------------------
A|----------------------------------------------------------------------------------------
E|----------------------------------------------------------------------------------------

E|------------------------------------------
B|-9-9-9-9-9-12-12-11-11-11-11-11-9-9-9-9-7-
G|-6-6-6-6-6-9--9--8--8--8--8--8--6-6-6-6-4-
D|------------------------------------------
A|------------------------------------------
E|------------------------------------------

 B
Sempurna
Ebm
Cerita yang tak sempurna
E
Apakah alasannya
Em      
Siapakah di hatinya


Bridge: G-F#-E-F#  

B
Bahasaku
Ebm
Mungkin tidak seindah
E
Lafaz kata pujangga
F#                       
Namun ku bersumpah

E
Rela ku tunggu
F#          G
Jawapanmu
Eb
Masihkah aku ada
Abm    F#     E           F#
Di hatimu saat ini

E                   F#        G
Biar tubuhku kan terpaku
Eb
Biar jasadku
Abm
Tak bernyawa lagi
E
Sampai nanti..

Em                 B
Ooo…ooo..ooo

Solo:
B E  F#  Eb  Ab  E  F#  B

SOLO TAB ~

E|------------------------------------7-7-7---11-----------------------------------------------
B|-16/--------------4-4-4-5-5-5-7-7-7----------------12/19-19/12--12-14-14/16-14---12/19-19/12-
G|------------4-4-4----------------------------------------------------------------------------
D|------4-4-4----------------------------------------------------------------------------------
A|---------------------------------------------------------------------------------------------
E|---------------------------------------------------------------------------------------------

E|-------------------12-14-12-----------------------------------------------------------------------------------------14-14-14-6
B|----------12-14-16----------16-14-12-16-14-12-----------------------------------14-14-14-15-15-15-16-16-16-17-17-17-----------
G|-12-13-15-------------------------------------15-----15-15-15-16-16-16-17-17-17-----------------------------------------------
D|------------------------------------------------------------------------------------------------------------------------------
A|------------------------------------------------------------------------------------------------------------------------------
E|------------------------------------------------------------------------------------------------------------------------------


E|-16-19-16-19-16-19-16---------------------------------------------------------------19----19----------
B|----------------------19-17-19b21r19---17-19-16-17-------19--16-17-------19---16-17----------17-19----
G|---------------------------------------------------15-16-----------15-16------------------------------
D|---------------------------------------------------------------------------------------------------17-
A|------------------------------------------------------------------------------------------------------
E|------------------------------------------------------------------------------------------------------

E
Rela ku tunggu
 F#         G
Jawapanmu
Eb
Masihkah aku ada
Abm     F#      E      F#
Di hatimu saat ini

E            F#          G
Biar tubuhku kan terpaku
Ebm
Biar jasadku
Ab
Tak bernyawa lagi


E    F#
Saat ini
      E           F#   G
Bila ku tunggu jawapanmu
    Eb
Masihkah aku ada
     Abm  
Dihatimu
E    F#
Saat ini
E    F#
Saat ini
E    F#
Saat ini ..

------------------------------------------------------------------------------------------
FB PAGE ~ https://www.facebook.com/MeTaLeAf5
LIKE N SUBSCRIBE 4 MORE VDO ^_^ ~
------------------------------------------------------------------------------------------

MINTA MAAF JIKA TERDAPAT KESALAHAN DI DALAM KORD DAN TAB SOLO YANG DI BERI
HARAP DAPAT MEMBANTU ANDA -ALIEF.O.ICE-

Videos

Video
This song has video associated with it. You need to login to view the video

Advertisement

Pantas Sifir

Facebook MalayOLGA

Comments

MalayOLGA - Malaysian Online Guitar Archive

Sponsors

Advertise Here!

Recent Visitors

blog counter

View My Stats

Page rendered in 0.6028 seconds