Pantas Sifir
Advertise on this space for USD3 per month. Click here.

Search


Disclaimer

This guitar tabs & chords is the author's own work and represents their interpretation of the song. You may only use this file for private study, scholarship, or research. Please support Malaysia music & entertainment industries and buy original CD and movies.

Apit - Tak Ku Sangka Tak Ku Duga (TAB)

(List all songs by Apit)
submitted by AliefOice on 3 Apr 2014 04:56 PM
Total views : 12409
  • Currently 0/5

Rating: 0/5 (0 votes cast) Please 'log in' to cast vote.


Apt Ft Appy
Tak Ku Sangka Tak Ku Duga

BaronBros

TUNING : DROP D# : D# G# C# F# A# D#

Intro : Am G F#m F x 4 Am

(/) Slide Up  (\) Slide Down  (h) Hammer On  (p) Pull Off  (b) Bend (r) Release (v) Vibrato

E|----------5---7p5---8p5---7p5---8-8/10-10-8h10p8-7-8-8-7h8p5-7-7b8r7-5---
B|------3/5---5-----5-----5-----5----------------------------------------6-
G|-------------------------------------------------------------------------
D|-------------------------------------------------------------------------
A|-0-----------------------------------------------------------------------
E|-------------------------------------------------------------------------

E|---------------------------------------------------------------------------
B|-5h6p5---------------------------------------------------------------------
G|-------7-5h7p5-4-5-5/7-7-5h7p5-4-5-5-4-5-5/7-5h7p5-4-5-5-4h5p4---4b5r4-----
D|---------------------------------------------------------------7-------7-3-
A|---------------------------------------------------------------------------
E|---------------------------------------------------------------------------

E|-----------------------------5---5-7-7/8-8-7-5-7-7/13-----
B|---------------------3-5-6-5---6--------------------------
G|---------------2-4-5--------------------------------------
D|-2-3---2-2---3--------------------------------------------
A|-----5----------------------------------------------------
E|----------------------------------------------------------

E|-12--10-----12-10-------10-------------------------10-------10-12----10-12-13-12-10-12-10-------10-------------------------
B|---------13-------13-12----13-12-10-13-12-10-12-13----12-13-------13----------------------13-12----13-12-10-13-12-10-12-13-
G|---------------------------------------------------------------------------------------------------------------------------
D|---------------------------------------------------------------------------------------------------------------------------
A|---------------------------------------------------------------------------------------------------------------------------
E|---------------------------------------------------------------------------------------------------------------------------

E|--------------------------------------------------------------------------
B|-12-12-10-12b13r12-10-----------------------------------------------------
G|----------------------10-9h10p9-7-9-9b10r9-7------------------------------
D|---------------------------------------------10-9h10p9-7-9-9h10r9-7-6/0---
A|------------------------------------------------------------------------0-
E|--------------------------------------------------------------------------

Am         Dm
Malam ku tidur tak lena
G               C
Teringatkan dirimu
     F                Dm
Terimbas kembali kenangan lalu
     E                   Am
Alangkah indahnya bersamamu

Am          Dm
Mengalir airmataku
Gm                 C
Menemani malam sepiku
      F              Dm
Ku rindu saat bersamamu
     E
Sukarnya untuk ku melupakanmu

          Dm
Dahulu engkau berikan cinta
          Am
Mengapa kini engkau berubah
           E
Manakah janji
                Am
Akan setia menanti

           Dm
Jikalau engkau tak lagi cinta
          Am
Katakan saja aku tak kisah
           E
Dari kau terus
                 Am
Membuat ku menunggu

       Dm
Tak ku sangka
       Am
Tak ku duga
     E                    Am
Perpisahan yang akan melanda

      Dm
Da ku coba
     Am 
Pertahankan
      F              Em
Namun dirimu pergi jua

     Am               Dm
Cintamu bagaikan rembulan
       G                   C
Yang hadir bila malam menjelang
      F                    Dm
Kau hilang bila siang mendatang
    E
Begitu lah sikap mu oh sayang
  
       Am                Dm
Kau lontar cintaku ditepian
     G                  C
Ku bagaikan hanyut dilautan
       F                 Am
Yang masih dalam percintaan
    E                  Am
Dipukul gelombak keresahan

Solo : Am, Dm, G, C, F, Dm, E, Am

          Dm
Dahulu engkau berikan cinta
          Am
Mengapa kini engkau berubah
           E
Manakah janji
                Am
Akan setia menanti

           Dm
Jikalau engkau tak lagi cinta
          Am
Katakan saja aku tak kisah
           E
Dari kau terus
                 Am
Membuat ku menunggu

       Dm
Tak ku sangka
       Am
Tak ku duga
     E                    Am
Perpisahan yang akan melanda

      Dm
Da ku coba
     Am 
Pertahankan
      F              Em
Namun dirimu pergi jua


     Am               Dm
Cintamu bagaikan rembulan
       G                   C
Yang hadir bila malam menjelang
      F                    Dm
Kau hilang bila siang mendatang
    E
Begitu lah sikap mu oh sayang
  
       Am                Dm
Kau lontar cintaku ditepian
     G                  C
Ku bagaikan hanyut dilautan
       F                 Am
Yang masih dalam percintaan
    E                  Am
Dipukul gelombak keresahan

Am          Dm
Mengalir airmataku
Gm                 C
Menemani malam sepiku
      F              Dm
Ku rindu saat bersamamu
     E                     F  
Sukarnya untuk ku melupakanmu

Outro : E, F, E, Am

------------------------------------------------------------------------------------------
FB PAGE ~ https://www.facebook.com/MeTaLeAf5
LIKE N SUBSCRIBE 4 MORE VDO ^_^ ~
------------------------------------------------------------------------------------------

MINTA MAAF JIKA TERDAPAT KESALAHAN DI DALAM KORD DAN TAB SOLO YANG DI BERI
HARAP DAPAT MEMBANTU ANDA -ALIEF.O.ICE-

Videos

Advertisement

Pantas Sifir

Facebook MalayOLGA

Comments

MalayOLGA - Malaysian Online Guitar Archive

Sponsors

Advertise Here!

Recent Visitors

blog counter

View My Stats

Page rendered in 0.6561 seconds