Bitcoin Income
Advertise on this space for USD3 per month. Click here.

Search


Disclaimer

This guitar tabs & chords is the author's own work and represents their interpretation of the song. You may only use this file for private study, scholarship, or research. Please support Malaysia music & entertainment industries and buy original CD and movies.

Lefthanded - Ku Dihalaman Rindu (intro ~ Solo)

(List all songs by Lefthanded)
submitted by AliefOice on 20 Aug 2014 05:51 PM
Total views : 21915
  • Currently 0/5

Rating: 0/5 (0 votes cast) Please 'log in' to cast vote.


LEFTHANDED - KU DIHALAMAN RINDU (AKUSTIK GITAR)

(/) Slide Up  (\) Slide Down  (h) Hammer On  (p) Pull Off  (b) Bend (r) Release (v) Vibrato

SOLO INTRO

E|-------------------------------2--------------9-10-9----------9-10-9-------------9-10-12-14-12-10-9-10-
B|---2---2-3---2-----------2-3-5---5-3-2-3----7--------7-7----7--------7-10-----12-----------------------
G|-4---4---------4---2---4-------------------------------------------------------------------------------
D|-----------------4-------------------------------------------------------------------------------------
A|-------------------------------------------------------------------------------------------------------
E|-------------------------------------------------------------------------------------------------------

SOLO TENGAH

E|---------------------------------------------------------2-----3---3/5/7-
B|-5/8-7h8p7-----------------------------2-3---2-3-5-2-3-5---3-5-----------
G|-----------9-7-7/9-7h9p7-6/0-----4-2-4-----4-----------------------------
D|-------------------------------------------------------------------------
A|-------------------------------------------------------------------------
E|-------------------------------------------------------------------------

E|-9b10r9p7h9-------------------------------------------------7----7-9-7-9-9b10r9----
B|----------------------------------------7---7-8-7-8-10-8-10---10----------------10-
G|----------------------6---6-7-6-7-9-7-9---9----------------------------------------
D|----------------9-7-9---9----------------------------------------------------------
A|-----------------------------------------------------------------------------------
E|-----------------------------------------------------------------------------------

-----------------------------------------------------------------------------------------
FB PAGE ~ https://www.facebook.com/MeTaLeAf5
LIKE N SUBSCRIBE 4 MORE VDO ^_^ ~
------------------------------------------------------------------------------------------

MINTA MAAF JIKA TERDAPAT KESALAHAN DI DALAM KORD DAN TAB SOLO YANG DI BERI
HARAP DAPAT MEMBANTU ANDA -ALIEF.O.ICE-

:D

Videos

Advertisement

Pantas Sifir

Facebook MalayOLGA

Comments

MalayOLGA - Malaysian Online Guitar Archive

Sponsors

Advertise Here!

Recent Visitors

blog counter

View My Stats

Page rendered in 0.6953 seconds