Pantas Sifir
Advertise on this space for USD3 per month. Click here.

Search


Disclaimer

This guitar tabs & chords is the author's own work and represents their interpretation of the song. You may only use this file for private study, scholarship, or research. Please support Malaysia music & entertainment industries and buy original CD and movies.

Saleem - CINTA TIGA SEGI

(List all songs by Saleem)
submitted by AliefOice on 30 Aug 2014 04:45 PM
Total views : 59687
  • Currently 1.00/5

Rating: 1.0/5 (1 vote cast) Please 'log in' to cast vote.


(/) Slide Up  (\) Slide Down  (h) Hammer On  (p) Pull Off  (b) Bend (r) Release (v) Vibrato

INTRO

E|---3-2h3p2---2-3/5-3-2-----------3-2h3p2---------
B|-----------5-----------3-3/4-4-----------5-3/5-5-
G|-4-----------------------------4-----------------
D|-------------------------------------------------
A|-------------------------------------------------
E|-------------------------------------------------

E|---3-2h3p2---2-3/5-5/7-5----3--2-3-2-------2-3-5-3-2-2h3p2-----2h3p2-----------
B|-----------5-------------------------5-4-5-----------------5---------5-4-------
G|-4-------------------------------------------------------------------------5-4-
D|-------------------------------------------------------------------------------
A|-------------------------------------------------------------------------------
E|-------------------------------------------------------------------------------


Em                    D
Bertahun sudah ku menunggu diri mu
B              Em
Akhirnya kau menjadi milikku

Em                D
Sukarnya untuk ku melupakan mu
B              Em
Kerna kau ku cintai selalu


Am              D               Em
Tapi sayang kehadiran kekasih lama mu
C              D                Em
Datang kembali mengenang cinta dahulu


Em                  Am
Mengapa ini semua harus berlaku
D                 G
Apakah ini semua kerna diri ku
C                            B
Sedangkan aku cuma watak dalam percintaan
C           D           Em
Tak sanggup aku melepaskanmu


Am            D                Em
Kau ibarat terperangkap ditengah lautan
C             D               Em
Tak tahu mana arah untuk kau menuju

Solo

E|-----3-2h3p2-----2-3-3/5-3-2-3-2-----------2-3-2-3-5-5/7-5h7-5-3-
B|-------------5-5-------------------5-4---5-----------------------
G|-2/4-------------------------------------------------------------
D|-----------------------------------------------------------------
A|-----------------------------------------------------------------
E|-----------------------------------------------------------------

E|-3-2---2-------2-3-3/5/3-3-3-5/7-5-3-2h3p2---------2-3-3/5-3-2-3-2---3-2---2---------
B|-----5---5-4-5-------------------------------5-4-5-----------------------5---5-3-3/5-
G|-------------------------------------------------------------------------------------
D|-------------------------------------------------------------------------------------
A|-------------------------------------------------------------------------------------
E|-------------------------------------------------------------------------------------

E|-2-3-2-3-3/5-2-3-3-3/5--5/7-5-3-3-2-2/3-2-----2--3-2-3-3/5-3-2---5/7-5-3-2-
B|------------------------------------------5-5------------------5-----------
G|---------------------------------------------------------------------------
D|---------------------------------------------------------------------------
A|---------------------------------------------------------------------------
E|---------------------------------------------------------------------------

E|-3-2-------2-3-5-5/7-5-3-2-3-2-------2-3-2-5/0-
B|-----5-4-5---------------------5-4-5-----------
G|-----------------------------------------------
D|-----------------------------------------------
A|-----------------------------------------------
E|-----------------------------------------------

Am            D                 Em
Tapi sayang kehadiran kekasih lama mu
C               D                Em
Datang kembali mengenang cinta dahulu


Em                Am
Mengapa ini semua harus berlaku
D                 G
Apakah ini semua kerna diri ku
C                            B
Sedangkan aku cuma watak dalam percintaan
C           D          Em
Tak sanggup aku melepaskanmu

Am             D                Em
Kau ibarat terperangkap ditengah lautan
C             D              Em
Tak tahu mana arah untuk kau menuju

Em                    D
Andai kau pinta untuk melepaskan mu
B             Em
Terpaksa aku turutkan

Em                 D
Mungkinkah ini suatu pengajaran
B              Em
Di dalam percintaan

------------------------------------------------------------------------------------------
FB PAGE ~ https://www.facebook.com/MeTaLeAf5
LIKE N SUBSCRIBE 4 MORE VDO ^_^ ~
------------------------------------------------------------------------------------------

MINTA MAAF JIKA TERDAPAT KESALAHAN DI DALAM KORD DAN TAB SOLO YANG DI BERI
HARAP DAPAT MEMBANTU ANDA -ALIEF.O.ICE-

Videos

Advertisement

Pantas Sifir

Facebook MalayOLGA

Comments

MalayOLGA - Malaysian Online Guitar Archive

Sponsors

Advertise Here!

Recent Visitors

blog counter

View My Stats

Page rendered in 0.6749 seconds