Pantas Sifir
Advertise on this space for USD3 per month. Click here.

Search


Disclaimer

This guitar tabs & chords is the author's own work and represents their interpretation of the song. You may only use this file for private study, scholarship, or research. Please support Malaysia music & entertainment industries and buy original CD and movies.

Wali - Doaku Untukmu Sayang

(List all songs by Wali)
submitted by Angah_S on 26 Jan 2018 12:00 AM
Total views : 1575
  • Currently 0/5

Rating: 0/5 (0 votes cast) Please 'log in' to cast vote.


Doaku Untukmu Sayang – WALI

Arrangement by: Kemay
IG: ikhmal_is
-Intro-

e|-------0---0-3-3------------------0-0--------0-1-0-1-3/5-5-7-8-7-5-7/8-7--|
B|-1-1-3---3-------0----1-1-0-1-0-1-----0---3-3-----------------------------|
G|------------------0--------------------0----------------------------------|
D|--------------------------------------------------------------------------|
A|-------3--------------------0------------------3--------------------------|
E|---------------3--------------------0----------------------------------3--|

-Verse-

e|--------------------------------------------------------------------------|
B|--------------1-----------------------3------------1-0-0h1-0h1p0-------1--|
G|-0---------0-------0-------------------0-2-0---------------------2---2----|
D|---3-2-2h3---2---3--3-2-0—2h3-2p0-2-3-------3-2--2-----------------3------|
A|-3---------3---------------------------------------0-------------3--------|
E|--------------------------------------------------------------------------|


e|---------------------------------------------------3---|
B|-0-1-1/3---------1-0-0h1-0h1p0------1-1/3----3-----3---|
G|----------0----0---------------2--2-------4-4-4-4--4---|
D|-----------2--2------------------3---------5---5---5---|
A|-----3/5---3-3---0-------------3------3/5----------5---|
E|---------------------------------------------------x---|

-Chorus-

e|-------0---0-3-3----------------0-0-------------------1-0-1-3/5-----------|
B|-1-1-3---3------0---1-1-0-1-0-1----0---------0--1---------------3---------|
G|-----------------0------------------0---2-0-2----0-0--------------4-------|
D|--------------------------------------------------2---0-------------5-----|
A|-------3------------------0-------------3-------3---------------5---------|
E|---------------3------------------0---------------------------------------|

e|-------0---0-3-3----------------0-0-------------------1-0-1------------0--|
B|-1-1-3---3------0---1-1-0-1-0-1----0---------0--1-----------3-1/3\1----1--|
G|-----------------0------------------0---2-0-2----0-0---------------0-0-0--|
D|--------------------------------------------------2---0-------------2--2--|
A|-------3------------------0-------------3-------3-----------5-----3----3--|
E|---------------3------------------0------------------------------------x--|

-Bridge-

e|-------0---0-3-3----------------0--7-8-7-5-3-1-0-1-3/5-5-7h8p7-5-7h8p7-7--|
B|-1-1-3---3------0---1-1-0-1-0-1-------------------------------------------|
G|-----------------0--------------------------------------------------------|
D|--------------------------------------------------------------------------|
A|-------3------------------0----------------------3------------------------|
E|---------------3-------------------------------------------------------3--|

-Verse-

e|--------------------------------------------------------------------------|
B|--------------1-----------------------3------------1-0-0h1-0h1p0-------1--|
G|-0---------0-------0-------------------0-2-0---------------------2---2----|
D|---3-2-2h3---2---3--3-2-0—2h3-2p0-2-3-------3-2--2-----------------3------|
A|-3---------3---------------------------------------0-------------3--------|
E|--------------------------------------------------------------------------|


e|---------------------------------------------------3----------------------|
B|-0-1-1/3---------1-0-0h1-0h1p0------1-1/3----3-----3----------------------|
G|----------0----0---------------2--2-------4-4-4-4--4----------------------|
D|-----------2--2------------------3---------5---5---5----------------------|
A|-----3/5---3-3---0-------------3------3/5----------5----------------------|
E|---------------------------------------------------x----------------------|

-Chorus-

e|-------0---0-3-3----------------0-0-------------------1-0-1-3/5-----------|
B|-1-1-3---3------0---1-1-0-1-0-1----0---------0--1---------------3---------|
G|-----------------0------------------0---2-0-2----0-0--------------4-------|
D|--------------------------------------------------2---0-------------5-----|
A|-------3------------------0-------------3-------3---------------5---------|
E|---------------3------------------0---------------------------------------|

e|-------0---0-3-3----------------0-0-------------------1-0-1---3-|
B|-1-1-3---3------0---1-1-0-1-0-1----0---------0--1-----------3---|
G|-----------------0------------------0---2-0-2----0-0------------|
D|--------------------------------------------------2---0---------|
A|-------3------------------0-------------3-------3-----------5---|
E|---------------3------------------0-----------------------------|


-Solo-

e|-0--1p0---3-3b5--8-7-8-5-8-8-5-3-8b10-3-1-8b10--0-----0-1---1-3-5-1-------|
B|---1---3-----------------------------------------3---3---3----------------|
G|--0-----------------------------------------------------------------------|
D|--------------------------------------------------------------------------|
A|-3-----5------------------------------------------------------------------|
E|--------------------------------------------------------------------------|


e|-5--7-8—5--5/10—10 10/12b15-----------------------------------------------|
B|--------------------------------------------------------------------------|
G|--------------------------------------------------------------------------|
D|--------------------------------------------------------------------------|
A|--------------------------------------------------------------------------|
E|--------------------------------------------------------------------------|






-Verse-

e|----------------------------------------3--|
B|-1-0-1-0--1-0-1-----1-0-1-0---3/5--3-------|
G|--------2------0------------2--------4-----|
D|----------------2---------------------5----|
A|-0------3-------3---0-------3------5-------|
E|-------------------------------------------|

-Chorus-

e|-------0---0-3-3----------------0-0-------------------1-0-1-3/5-----------|
B|-1-1-3---3------0---1-1-0-1-0-1----0---------0--1---------------3---------|
G|-----------------0------------------0---2-0-2----0-0--------------4-------|
D|--------------------------------------------------2---0-------------5-----|
A|-------3------------------0-------------3-------3---------------5---------|
E|---------------3------------------0---------------------------------------|

e|-------0---0-3-3----------------0-0-------------------1-0-1---3-|
B|-1-1-3---3------0---1-1-0-1-0-1----0---------0--1-----------3---|
G|-----------------0------------------0---2-0-2----0-0------------|
D|--------------------------------------------------2---0---------|
A|-------3------------------0-------------3-------3-----------5---|
E|---------------3------------------0-----------------------------|

Videos

Advertisement

Pantas Sifir

Facebook MalayOLGA

Comments

MalayOLGA - Malaysian Online Guitar Archive

Sponsors

Advertise Here!

Recent Visitors

blog counter

View My Stats

Page rendered in 0.3862 seconds