Sentap2 Tudung
Advertise on this space for USD3 per month. Click here.

Disclaimer

This guitar tabs & chords is the author's own work and represents their interpretation of the song. You may only use this file for private study, scholarship, or research. Please support Malaysia music & entertainment industries and buy original CD and movies.

Dian Sastro - Tentang Seseorang

(List all songs by Dian Sastro)
submitted by jackal on 21 Jun 2005 12:00 AM
Total views : 24159

Insert Comment
  • Currently 0/5

Rating: 0/5 (0 votes cast) Please 'log in' to cast vote.


Judul: Tentang Seseorang

Puisi & Lagu dibawakan: Dian Sastro

jackal

 

 

 

e|---------0----------0---------------|

B|-----------0----------0-------------|

G|----2~~~-------4~~~-------5~~~------|

D|------------------------------------| 2x

A|------------------------------------|

E|----2~~~-------4~~~-------5~~~------|

 

     Gbm              Dsus2            EMaj7            Asus

e|----------------|---------0~~~---|---------0~~~---|----------------|

B|---------0~~~---|-------3--------|---------0~~~---|---------0~~~---|

G|-------2--------|-----2----------|-------1--------|-------2--------|

D|-----2----------|---0~~~---------|-----2----------|-----2----------| 2x

A|----------------|----------------|----------------|---0~~~---------|

E|---2~~~---------|----------------|---0~~~---------|----------------|

 

     Bm7               Db7              Db7               Gbm7

e|-----------------|---------4~~~---|-----------4-----|----------------|

B|---------3~~~----|----------------|---------6---4---|---------0~~~---|

G|-------2---------|-------4--------|-------4---------|-------2--------|

D|-----4-----------|-----6----------|-----6-----------|-----2----------|

A|---2~~~----------|---4~~~---------|---4~~~----------|----------------|

E|-----------------|----------------|-----------------|---2~~~---------|

 

 

 

 

 

 

 

    Dsus2            EMaj                             

e|--------0~~~---|---------0~~~---|-----------0~~~--|-------------------|

B|------3--------|---------0~~~---|-------2---------|-------2-----------|

G|----2----------|-------1--------|---------4-------|---------4~~~------|

D|--0~~~---------|-----2----------|-----2-----------|-----2-------------|

A|---------------|----------------|---0~~~----------|---0~~~------------|

E|---------------|---0~~~---------|-----------------|----------------4--|

 

     Gbm7           Dsus2               Dsus2 on B          Asus

e|--------------|---------0-------0--|--------0----------|--------------|

B|--------0~~~--|-------3-------3----|------3---------0--|--------0~~~--|

G|------2-------|-----2-------2------|----2---------1----|------2-------|

D|----2---------|---0~~~-------------|------------2------|----2---------|

A|--------------|-----------4~~~-----|--2~~~-------------|--0~~~--------|

E|--2~~~--------|--------------------|----------0~~~-----|--------------|

 

     Bm7              Dbm7             Db7              Gbm7

e|----------------|----------------|----------------|----------------|

B|---------3~~~---|---------5~~~---|---------6~~~---|---------0~~~---|

G|-------2--------|-------4--------|-------4--------|-------2--------|

D|-----4----------|-----6----------|-----6----------|-----2----------|

A|---2~~~---------|---4~~~---------|---4~~~---------|----------------|

E|----------------|----------------|----------------|---2~~~---------|

 

     Dsus2             EMaj7             

e|---------0~~~----|----------------|-----------0~~~--|-----------0~~~--|

B|-------3---------|----------------|-------2---------|-------2---------|

G|-----2-----------|---------1~~~---|---------4-------|---------4-------|

D|---0~~~----------|-------0-0~~~---|-----2-----------|-----2-----------|

A|-----------------|-----2----------|---0~~~----------|---0~~~----------|

E|-----------------|---0~~~---------|-----------------|-----------------|

 

 

 

 

     Bm              EMaj            Gbm7      

e|----------------|---------------|---------------|------0--------0---|

B|---------3~~~---|---------------|--------0~~~---|--------3----3-----|

G|-------4--------|--------1~~~---|------2--------|----2------2-------|

D|-----4----------|------2-2~~~---|----2----------|--0~~~-------------|

A|---2~~~---------|----2----------|---------------|----------4~~~-----|

E|----------------|--0~~~---------|--2~~~---------|-------------------|

 

    Bm                Db7

e|---------2~~~---|----------------|-----0---------0--------------|

B|-------3--------|---------6~~~---|-------0---------0------------|

G|----------------|-------4--------|---2~~~------4~~~------5~~~---|

D|-----4----------|-----6----------|------------------------------|

A|---2~~~---------|---4~~~---------|------------------------------|

E|----------------|----------------|---2~~~------4~~~------5~~~---|

 

 Dian Sastro also sing

 

    Bm7            EMaj7           Gbm7                Dsus2

e|--------------|---------------|-------------0----|---------0-------0--|

B|--------3~~~--|---------------|--------0~~~---0--|-------3-------3----|

G|------2-------|--------1~~~---|------2-----------|-----2-------2------|

D|----4---------|------0--------|----2-------------|---0~~~-------------|

A|--2~~~--------|----2----------|------------------|-----------4~~~-----|

E|--------------|--0~~~---------|--2~~~------------|--------------------|

 

    Bm7            Dbm               Asus             Gbm7

e|--------2~~~--|---------------|------------------|----------0-------|

B|------3-------|--------6~~~---|--------0~~~------|--------0---0~~~--|

G|--------------|------4--------|------2------2~~--|------2-----------|

D|----4---------|----6----------|----2-------------|----2-------------|

A|--2~~~--------|--4~~~---------|------------------|------------------|

E|--------------|---------------|--2~~~------------|--2~~~------------|

 

    Bm           Bm              Gbm7                    Dsus2

e|------------|---------------|-------------0---0~~--|---------0-------0--|

B|------3-----|--------3~~~---|--------0~~~---0------|-------3-------3----|

G|--------4---|------4--------|------2---------------|-----2-------2------|

D|----4-------|----2----------|----2-----------------|---0~~~-------------|

A|--2~~~------|---------------|----------------------|-----------4~~~-----|

E|------------|--0~~~---------|--2~~~----------------|--------------------|

 

   

 Bm                Dbm9

e|---------2~~~----|----------------|

B|-------3---------|---------6~~~---|

G|-----------------|-------4--------|

D|-----4-----------|-----6----------|

A|---2~~~----------|---4~~~---------|

E|-----------------|----------------|

 

 

 

 

e|-------------------------|

B|---------0---------------|

G|-------2-----4--5~~~-----|

D|-----2-------4--5~~~-----| 2x

A|----------------0~~~-----|

E|---2---------2~~~--------|

 

                     ^ (Downstroke)

e|----------------------------------0------||

B|---------0--------------------------0----||

G|-------2-----4-x---5~~~---------------5--||

D|-----2-------4-x---5~~~------------------||

A|-------------------0~~~------------------||

E|---2---------2-x-------------------------||

 

enjoy !!!

  

Videos

Advertisement

Tempahan T-Shirt MalayOLGA

Facebook MalayOLGA

Comments

Insert Comment

Name
Email
Website
Message
MalayOLGA - Malaysian Online Guitar Archive
User Name:

Password:


Forgotten Password
Register

Related Links

Sponsors

Advertise Here!

Latest Comments

Recent Visitors

blog counter

View My Stats

Page rendered in 0.7670 seconds