Sentap2 Tudung
Advertise on this space for USD3 per month. Click here.

Disclaimer

This guitar tabs & chords is the author's own work and represents their interpretation of the song. You may only use this file for private study, scholarship, or research. Please support Malaysia music & entertainment industries and buy original CD and movies.

Shades - Jangan Kau Ucap Selamat Tinggal

(List all songs by Shades)
submitted by affanaizat on 23 Jul 2006 12:00 AM
Total views : 31037

Insert Comment   Show Comments
  • Currently 0/5

Rating: 0/5 (0 votes cast) Please 'log in' to cast vote.


Shades 
- Jangan Kau Ucap Selamat Tinggal


intro:


   Cm      Fm  Bb       Eb     G              Cm                   G         
e|---------3~-----------4--3-|-3-4---3------------3---------------------|
B|-----3-4----6~--3-4-6------|-----6---4-6-3-6-6----4-6-3-4--3-3h4-3----|
G|-5~------------------------|------------------------------5--------5~-|
D|---------------------------|------------------------------------------|
A|---------------------------|------------------------------------------|
E|---------------------------|------------------------------------------|

       Fm  G 
e|---------------------------|
B|-3-4-3---------------------|
G|-------5-4~----------------|
D|------------5-6-5-3~-------|
A|---------------------6~----|
E|---------------------------|



verse:

      Cm
   Ku mencari, Ku mencari
    Fm       
   Apakah salahku
 Bb                        Eb                        
   Kau buat ku termenung seorangan
     Fm           Bb    Eb         Cm
   Dalam diri sangsi, Akhirnya begini
          Fm           G
   perpisahan tak ku duga
   
      Cm
   Ku mengerti, Ku fahami
     Fm
   Keputusan diri
 Bb                Eb               
   Biar saja aku sebegini
      Fm         Bb         Eb            Cm
   Permintaan terakhirku, Jangan kau lafazkan
            Fm        G       
   Simpan saja kata-kata


chorus:

     Cm            Fm
   Jangan diucap selamat tinggal
     Bb               Eb
   Jangan kau ucap selamat tinggal
     G#            Fm
   Jangan diucap selamat tinggal
 G       Cm
   Kepadaku

            Fm    Bb
   Walaupun seketika 
            Eb        G#
   Walaupun sekelip mata
            Fm        G      
   Simpan saja kata-kata 
            Cm
   Ke akhir hayat yang ada  (x2)
       

Videos

Advertisement

Facebook MalayOLGA

Comments

behtash
behtash
9 Apr 2009 1:14 pm
Lagu lama nie..dalam tahun 1995.. nostalgia jugakla kat aku..

Insert Comment

Name
Email
Website
Message
MalayOLGA - Malaysian Online Guitar Archive
User Name:

Password:


Forgotten Password
Register

Related Links

Sponsors

Advertise Here!

Latest Comments

Recent Visitors

blog counter

View My Stats

Page rendered in 0.3229 seconds