Bitcoin Income
Advertise on this space for USD3 per month. Click here.

Search


Disclaimer

This guitar tabs & chords is the author's own work and represents their interpretation of the song. You may only use this file for private study, scholarship, or research. Please support Malaysia music & entertainment industries and buy original CD and movies.

Bunkface - Situasi (Tabs)

(List all songs by Bunkface)
submitted by hazek on 29 Aug 2009 12:00 AM
Total views : 21895
  • Currently 5.00/5

Rating: 5.0/5 (2 votes cast) Please 'log in' to cast vote.


Band : Bunkface
Song  : Situasi
Album : Lesson of the Season 
Tuning : Standard

verse 1
e|-----------------------------|
B|-----------------------------|
G|-3-3-------------------------|
D|-3-3----3-3----4-4----6-6----|  X3
A|-1-1----3-3----4-4----6-6----|
E|--------1-1----2-2----4-4----|

e|-----------------------------|
B|-----------------------------|
G|-6-6-------------------------|
D|-6-6----6-6----4-4----6-6----|  
A|-4-4----6-6----4-4----6-6----|
E|--------4-4----2-2----4-4----|

pre-chorus
e|----------------------------------------|
B|----------------------------------------|
G|--------3~------------------------------|
D|-4~-----3~-----4~-----6-6-6-6-6-6-6-6---|
A|-4~-----1~-----4~-----6-6-6-6-6-6-6-6---|
E|-2~------------2~-----4-4-4-4-4-4-4-4---|
                        . . . . . . . .

chorus
   X16    X16   X16    X8    X8
e|------------------------------|
B|------------------------------|
G|-6----------------------------|
D|-6------6------8------4----6--|    X2     
A|-4------6------8------4----6--|
E|--------4------6------2----4--|

post-chorus
rhythm stop kt G#
lead main nie…
e|-------------------------------|
B|-------------------------------|
G|-8~--6~--5~--------------------|
D|-x~--x~--x~--6~---------8\-----|
A|-6~--4~--3~--x~---------x\-----|
E|-------------4~---------6\-----|

verse 2 (rhythm sama cm verse 1)
“kerna diri ini tak daya lagi..”
e|--8h9-8-----------------------------------|
B|--------9-9/11~----9~----7~----9~---------|
G|------------------------------------------|

Play  pre-chorus
 chorus

solo
   Lead
e|-----------------------------------------------------|
B|-----------------------------------------------------|
G|-11-11-11-11\-10-10-10-10/-15-15-15-15\-13-13-13-13\-|
D|--x--x--x--x\--x--x--x--x/--x--x--x--x\--x--x--x--x\-|
A|--9--9--9--9\--8--8--8--8/-13-13-13-13\-11-11-11-11\-|
E|-----------------------------------------------------|
 |
 | Rhythm
 |  X8                        X8 
e|-----------------------------------------------------|
B|-----------------------------------------------------|
G|-----------------------------------------------------|
D|--4-------------------------6------------------------|
A|--4-------------------------6------------------------|
E|--2-------------------------4------------------------|

(continued…
e|-----------------------------------------------------|
B|-----------------------------------------------------|
G|-11-11-11-11/-13-13-13-13/-15-15-15-15/-17-17-17-17/-|
D|--x--x--x--x/--x--x--x--x/--x--x--x—-x/--x--x--x--x/-|
A|--9--9--9--9/-11-11-11-11/-13-13-13-13/-15-15-15-15/-|
E|-----------------------------------------------------|
 |
 |
 |  X8                        X8 
e|-----------------------------------------------------|
B|-----------------------------------------------------|
G|-----------------------------------------------------|
D|--4-------------------------6------------------------|
A|--4-------------------------6------------------------|
E|--2-------------------------4------------------------|

(continued…
   Lead (msuk skali ngan chord 1st chorus)
e|------|
B|------|
G|-18~--|
D|--x~--|
A|-16~--|
E|------|

Play chorus

outro
  “whoa-oh….    Oh…” 
e|------------------------------|
B|------------------------------|
G|--------------6~--------------|
D|-6~--6~-------6~--------------|
A|-3~--3~-------4~--------------|
E|-4~--4~-----------------------|









selamat mencube:)

Videos

Advertisement

Pantas Sifir

Facebook MalayOLGA

Comments

MalayOLGA - Malaysian Online Guitar Archive

Sponsors

Advertise Here!

Recent Visitors

blog counter

View My Stats

Page rendered in 0.6117 seconds