Pantas Sifir
Advertise on this space for USD3 per month. Click here.

Search


Disclaimer

This guitar tabs & chords is the author's own work and represents their interpretation of the song. You may only use this file for private study, scholarship, or research. Please support Malaysia music & entertainment industries and buy original CD and movies.

Axl - Andai Dapat Ku Undur Masa (Intro Tab)

(List all songs by Axl)
submitted by arif_aziz on 15 Feb 2010 12:00 AM
Total views : 25758
  • Currently 0/5

Rating: 0/5 (0 votes cast) Please 'log in' to cast vote.


intro:

 --------------------------------6--4h5p----------
 -------------------------6--4--------------------
 -----3--5-5h6p5-6--------------------------------
 --3----------------------------------------------
 -------------------------------------------------
 -------------------------------------------------

 -------------------------------------------------
 --7-6-7------------------------------------------
 ----------10--8--6--8h10-10----------------------
 -------------------------------------------------
 -------------------------------------------------
 -------------------------------------------------

 -------------------------------------------------
 --7-6-7------------------------------------------
 ----------10--8--6--8h10--6----------------------
 -------------------------------------------------
 -------------------------------------------------
 -------------------------------------------------

 --8h9p8---6-5--------5--6h8p6------6-------------
 -----------------6-----------------6-------------
 -----------------------------------6-------------
 -------------------------------------------------
 -------------------------------------------------
 -------------------------------------------------

 try la tab niy..klau xbrape sdp sori la ey...tp aq rse ok kot...enjoy...adioz

klau ade pape komen la kt aq...

Videos

Advertisement

Pantas Sifir

Facebook MalayOLGA

Comments

MalayOLGA - Malaysian Online Guitar Archive

Sponsors

Advertise Here!

Recent Visitors

blog counter

View My Stats

Page rendered in 0.6920 seconds