Pantas Sifir
Advertise on this space for USD3 per month. Click here.

Search


Disclaimer

This guitar tabs & chords is the author's own work and represents their interpretation of the song. You may only use this file for private study, scholarship, or research. Please support Malaysia music & entertainment industries and buy original CD and movies.

Wali - Yank (Intro)

(List all songs by Wali)
submitted by keynote on 19 Aug 2010 12:00 AM
Total views : 25910
  • Currently 0/5

Rating: 0/5 (0 votes cast) Please 'log in' to cast vote.


e|--------------------4----------------------------------------------------
B|----------------4-5---7--5-7--4h5-4--------444-5-7-7-5-4-5-4h5p4---------
G|---6--6-----666-------------------------------------------------6--------
D|--6--6-------------------------------------------------------------------
A|-------------------------------------------------------------------------
E|-------------------------------------------------------------------------

e|-------------------------------------------------------------------------
B|--9--9-9---7---4-4--4--4-4--4-4h5-4--------------------------------------
G|--9--9-9---7---5-5--5--5-5--5--------------------------------------------
D|-------------------------------------------------------------------------
A|-------------------------------------------------------------------------
E|-------------------------------------------------------------------------

e|---------------------------4---------------------------------------------
B|---4h5p4---4-5---------4-5---7--5-7--4h5-4--7-----7--7-7--5-4-5--4h5p4---
G|---------6-----6---666-------------------------------------------------6-
D|--6----------------------------------------------------------------------
A|-------------------------------------------------------------------------
E|-------------------------------------------------------------------------

e|-------------------------------------------------------------------------
B|--777--555--444----------------------------------------------------------
G|-----------------666-----------------------------------------------------
D|-------------------------------------------------------------------------
A|-------------------------------------------------------------------------
E|-------------------------------------------------------------------------

Sori..aku rase tab ni lg tepat n senang nk bace kot..ape pn selamat mencube...
nk senang dengar lagu die dulu...kl ade salah please comment...

Videos

Advertisement

Pantas Sifir

Facebook MalayOLGA

Comments

MalayOLGA - Malaysian Online Guitar Archive

Sponsors

Advertise Here!

Recent Visitors

blog counter

View My Stats

Page rendered in 0.6899 seconds