Advertise on this space for USD3 per month. Click here.

Search


Disclaimer

This guitar tabs & chords is the author's own work and represents their interpretation of the song. You may only use this file for private study, scholarship, or research. Please support Malaysia music & entertainment industries and buy original CD and movies.

Sofea - Bunga Padang Pasir (Intro TABS)

(List all songs by Sofea)
submitted by Rockers_Kapok on
Total views : 11985

-------------------------------------------------
 -------------------------------------------------
 -------------------------------------------------
 -------------------------------------------------
 --------5------------------------6---------------
 ---5--3---3--1--8x2--7--5--7--8------------------

 -------------------------------------------------
 -------------------------------------------------
 -------------------------------------------------
 -------------------------------------------------
 -----------------------4--5--7-------------------
 ---8x2--7x2--5x2--4x2-----------5--6--5--3--5----

 -------------------------------------------------
 -------------------------------------------------
 -------------------------------------------------
 ------------------------------4--5--7------------
 ------------------------6--5---------------------
 ---5--7--8--7--8--5--4---------------------------

 -------------------------------------------------
 -------------------------------------------------
 -------------------------------------------------
 -------------------------------------------------
 ---5--6--5--3--5---------------------------------
 --------------------8--7--5x2--------------------

Advertisement

Facebook MalayOLGA

Comments

MalayOLGA - Malaysian Online Guitar Archive

Sponsors

Recent Visitors

blog counter

View My Stats