Advertise on this space for USD3 per month. Click here.

Search


Disclaimer

This guitar tabs & chords is the author's own work and represents their interpretation of the song. You may only use this file for private study, scholarship, or research. Please support Malaysia music & entertainment industries and buy original CD and movies.

Hafiz - Untuk Kamu OST Ombak Rindu

(List all songs by Hafiz)
submitted by amirul on
Total views : 7779

Hafiz - Untuk Kamu (OST Ombak Rindu) Lyrics & Chord 
Intro: 
D Bm Em A 
D Bm 
Raut wajah...Mendamaikan... 
Em A 
Dan sesuci..Selembut hatimu.. 
D Bm
Sinar mata...Mempersona...
 Em A 
Bagai gugur seluruh jantungku...
 G A D Bm 
Aku Ingin engkau tahu... 
G A D 
Cinta aku satu...
 G A D 
Bm Tercipta buat dirimu..
 G A D 
Hanya... Untuk kamu... 
D Bm Em A 
Huuu....Huuu...Huuu.... 
D Bm Em A 
Huuu....Huuu...Huuu...

raut wjah..mempesona..
e ---------------------------------------------
b ---------------------------------------------
g ----10-9-9----10-9-9---9-7-9-10-5-7-5-5-7h-4-
d -5----------5--------------------------------
a ---------------------------------------------
E ---------------------------------------------

aku ingin engkau tahu
e ------------------------------------------------
b -----10-8-6-8-6-5------10-8-6-8-----10-8-6-8-6-5
g -4-2---------------2-4-----------4-2------------
d ------------------------------------------------
a ------------------------------------------------
E ------------------------------------------------

hanya untuk kamu
e ------------------------------------------------
b -3-5h---3----6slide8-6-5-3----------------------
g ------5----5---------------5--------------------
d ------------------------------------------------
a ------------------------------------------------
E ------------------------------------------------

*h - hammer

ni first tab sy buat.rsenye dah mantap dah.dah bape kli edit dah ni.mtk2 btol la.klau slah jgn la ktok2.sy pn bru nk blajar buat tab.timekasih:)

Advertisement

Facebook MalayOLGA

Comments

MalayOLGA - Malaysian Online Guitar Archive

Sponsors

Recent Visitors

blog counter

View My Stats