Advertise on this space for USD3 per month. Click here.

Search


Disclaimer

This guitar tabs & chords is the author's own work and represents their interpretation of the song. You may only use this file for private study, scholarship, or research. Please support Malaysia music & entertainment industries and buy original CD and movies.

BPR - Bumi Putra Rockers - Seribu Tahun Takkan Mungkin (Solo Tab)

(List all songs by BPR - Bumi Putra Rockers)
submitted by afiq_aqmar on
Total views : 23604

e ---------------------------------------------------------
 B --5--6---8-----6--5------6--8--10-----8--6--5------------
 G ---------------------7-----------------------------------
 D ---------------------------------------------------------
 A ---------------------------------------------------------
 E ---------------------------------------------------------

 e ---------------------------------------------------------
 B --------5--8--6-----5--4-----5---------------------------
 G --5--7--------------------4------------------------------
 D ---------------------------------------------------------
 A ---------------------------------------------------------
 E ---------------------------------------------------------
 
 e ---------------------------------------------------------
 B -----6--5--------5--------12--10--9----------------------
 G --------------------7------------------------------------
 D --7--------7---------------------------------------------
 A ---------------------------------------------------------
 E ---------------------------------------------------------

 e ---------------------------------------------------------
 B -----6--5--------5---------------------------------------
 G --------------------7-----4------------------------------
 D --7--------7-----------------7--6------------------------
 A -----------------------------------7---------------------
 E ---------------------------------------------------------

 e --15-15--13--12--13--12--10------------------------------
 B ---------------------------------------------------------
 G ---------------------------------------------------------
 D ---------------------------------------------------------
 A ---------------------------------------------------------
 E ---------------------------------------------------------

 e ------------------12-------------------------------------
 B --15--13--12--13------15--13--12--10--12--13--12--10-----
 G ---------------------------------------------------------
 D ---------------------------------------------------------
 A ---------------------------------------------------------
 E ---------------------------------------------------------

 e --17--14-----14------------------------------------------
 B ----------16-----16--13--16--13------12------------------
 G ---------------------------------11----------------------
 D ---------------------------------------------------------
 A ---------------------------------------------------------
 E ---------------------------------------------------------

 e --------------12-12---12--10--8--13----------------------
 B --12---10--9---------------------------------------------
 G ---------------------------------------------------------
 D ---------------------------------------------------------
 A ---------------------------------------------------------
 E ---------------------------------------------------------

For Acoustic.

Advertisement

Facebook MalayOLGA

Comments

MalayOLGA - Malaysian Online Guitar Archive

Sponsors

Recent Visitors

blog counter

View My Stats