Advertise on this space for USD3 per month. Click here.

Search


Disclaimer

This guitar tabs & chords is the author's own work and represents their interpretation of the song. You may only use this file for private study, scholarship, or research. Please support Malaysia music & entertainment industries and buy original CD and movies.

Jinbara - Kasihnya Laila (intro tabs)

(List all songs by Jinbara)
submitted by jalte on
Total views : 53809

Jinbara
- Kasih nya Laila (intro tabs)

Ramai yang mintak tabs utk intro lagu ni. 
Aku pun bukannya pandai sangat cari tabs.
So kalu ada yang tak betul tu sila inform
di dalam forum...

enjoy...


e|-----------------------------------------------------------|
B|------------------7-8h10p8-7-8---8-8-10-10-8-8-7-7-5-5---7-|
G|-------9-9----9-9--------------------------------------7---|
D|-7/9-9-----------------------------------------------------|
A|-----------------------------------------------------------|
E|-----------------------------------------------------------|

e|----------------------------------|
B|-7-7-8-8-7-7-5-5-----7-5h7p5------|
G|-----------------7-7---------7-5--|
D|----------------------------------|
A|----------------------------------|
E|----------------------------------|

e|----------------------------------|
B|-5-5-8-8-7-7-5-5-----5-5----------|
G|-----------------7-7--------------|
D|----------------------------------|
A|----------------------------------|
E|----------------------------------|

Advertisement

Facebook MalayOLGA

Comments

MalayOLGA - Malaysian Online Guitar Archive

Sponsors

Recent Visitors

blog counter

View My Stats