Advertise on this space for USD3 per month. Click here.

Search


Disclaimer

This guitar tabs & chords is the author's own work and represents their interpretation of the song. You may only use this file for private study, scholarship, or research. Please support Malaysia music & entertainment industries and buy original CD and movies.

Samsons - Tak Bisa Memiliki

(List all songs by Samsons)
submitted by pdod on
Total views : 50202

intro
  
 Asus2.     
     E  E  E  E  E  E  E  E   
E||-----0--------0--------0--|
B||--------0--------0--------|
G||-----------2--------2-----|
D||--------------------------|
A||--0-----------------------|
E||--------------------------|
pastu masuk kord dia...skali
intro: A   E/G#   F#m   E   D   C#m   Bm   E   A

E/G-(X76454)

ni lead mula(salah bgtaw)

                     A....................   
   intro    intro    E  Q    Q    Q    E   
E||-------|-------|-----5----L----L----L--|
B||-------|-------|--5--------------------|
G||-------|-------|-----------------------|
D||-------|-------|-----------------------|
A||-------|-------|-----------------------|
E||-------|-------|-----------------------|


E/G#......................
  E  E  E  E  E  E  E  E   
-----7--L--L--L--L--L--L--|
--5-----------------------|
--------------------------|
--------------------------|
--------------------------|
--------------------------|


F#m.......................
  E  E  E  E  E  E  E  E   
-----5--L--L--L--L--L--L--|
--5-----------------------|
--------------------------|
--------------------------|
--------------------------|
--------------------------|


E........................
  E  E  E  E  E  E  E  E   
-----4--L--L--------------|
--5--------5--x--5--x--5--|
--------------------------|
--------------------------|
--------------------------|
--------------------------|

D.........................
  E  E  E  E  E  E  E  E   
-----2--L--L--L--L--L--L--|
--5-----------------------|
--------------------------|
--------------------------|
--------------------------|
--------------------------|

C#m......................
  E  Q    E  E  E  E  E   
-----0----L--------------|
--2-------2--L--L--L--L--|
-------------------------|
-------------------------|
-------------------------|
-------------------------|


Bm........................
  E  E  E  E  E  E  E  E   
-----0--L--L--------------|
--2-----------2-----0--L--|
-----------------2--------|
--------------------------|
--------------------------|
--------------------------|


E.....................
  E  E  E  E  E  E  E  E                     
---------------------------------------------
---------------------------------------------
-----2-----4--2--L--L--L---------------------
--2-----2------------------------------------
---------------------------------------------
---------------------------------------------

-------||
-------||
-------||
-------||
-------||


E tu Eight note(1/8 beat)
Q tu quater note(1/4 beat)
L tu let ring




(KOd ni copy ULTIMATE-GUITAR)

       Bm                              E
(* )      Apakah yang engkau cari

Bm                               E
    Apakah yang engkau inginkan
C#m                       F#m –
    Tak dapat lagi ku penuhi
E     –    D
   Begitulah aku
           E
Pahamilah aku

                   A    –   E/G#       –       F#m –
Reff:    Mungkin aku tidaklah sempurna

E     –    D        –     C#m  –   Bm       –       E –
   Tetapi hatiku memilikimu sepanjang umurku

chord

etelah pengulangan reff yg kedua, dr sini lanjut ke ( + )

Interlude: A – E/G# – F#m – E – D – C#m – Bm –

E – A – C#m – F#m – E – D – E – A    (A/G#)

Kembali: ( * ) | Reff (2x)

       E   – D   –  E       –     F#m –
( + )    Dirimu seumur hidupku
E/G# – D   –  E      –      F#m –
      Dirimu seumur hidupku
E/G# – D   –  E      –      F#m –
      Dirimu seumur hidupku
E/G# – D   –  E
      Dirimu seumur hidupku

Coda: A   E/G#   F#m   E   D   C#m   Bm   E   A



solo dia ada... 
tp xdpt nk transcribe...guitar pro jer leh..

Advertisement

Facebook MalayOLGA

Comments

MalayOLGA - Malaysian Online Guitar Archive

Sponsors

Recent Visitors

blog counter

View My Stats