Advertise on this space for USD3 per month. Click here.

Search


Disclaimer

This guitar tabs & chords is the author's own work and represents their interpretation of the song. You may only use this file for private study, scholarship, or research. Please support Malaysia music & entertainment industries and buy original CD and movies.

Amy Search - Tiada Lagi (solo)

(List all songs by Amy Search)
submitted by calfred on
Total views : 20605

Amy Search - Tiada Lagi SOLO TAB

by Alfred Chai bobsixteen@hotmail.com

E|--------------------------------------------10s12------------------------------------------|
A|---12-13-13s15-10-10----------8--8-10-12-12-------12-8s10-10-8--8-10-12-12--8-10-12-12s15--|
D|----------------------12p10----------------------------------------------------------------|
G|-------------------------------------------------------------------------------------------|
B|-------------------------------------------------------------------------------------------|
E|-------------------------------------------------------------------------------------------|

E|--------------------------------------------------15-17-15p13h15-10-10~--10-10-22?---------|
A|----------------------10h13-b13~-13-10-b13-*b13~-------------------------------------------|
D|---------------10h12-----------------------------------------------------------------------|
G|---10h12-12p10-----------------------------------------------------------------------------|
B|-------------------------------------------------------------------------------------------|
E|-------------------------------------------------------------------------------------------|

* bend half

Advertisement

Facebook MalayOLGA

Comments

MalayOLGA - Malaysian Online Guitar Archive

Sponsors

Recent Visitors

blog counter

View My Stats