Advertise on this space for USD3 per month. Click here.

Search


Disclaimer

This guitar tabs & chords is the author's own work and represents their interpretation of the song. You may only use this file for private study, scholarship, or research. Please support Malaysia music & entertainment industries and buy original CD and movies.

Denis Arista - Tak Jujur

(List all songs by Denis Arista)
submitted by syukur_007 on
Total views : 3956

C              G
kau dulu ku cintai
 C              G
kau juga kusayangi
 Dm              Am
kau bahkan menyakiti 
 Dm       F         E
kau yang paling ku benci

 C             G
kau dulu ku cintai
 C             G
kau juga kusayangi
 Dm               Am
kau tak seperti dulu 
  Dm       F      E
kau tak jujur padaku

          F
untuk apa lagi
          Dm
aku menyesali
             G
tiada guna lagi
             C
untuk ditangisi
               F
kalau sudah kasih
              E
tak jujur padaku
      Am
mau apa

            F
untuk apa lagi
           Dm
aku menyesali
             G
tiada guna lagi
              C
untuk ditangisi
               F
kalau sudah kasih
              E
tak jujur padaku
             Am
ho terserahlah


E|-------5-------------|-------5---------|-------5-7-5---5-7-8--10^12--8--7--7/12--|
B|-5-6-8---8-6/8 8-----|-5-6-8---8-6/8 8-|---6-8-------8---------------------------|
G|---------------------|-----------------|-----------------------------------------|
D|---------------------|-----------------|-----------------------------------------|
A|---------------------|-----------------|-----------------------------------------|
e|---------------------|-----------------|-----------------------------------------|

|---(13-12-10)ulang 7x kot---(12-10-8)ulang 7x gak kot---|---13----------------------13-12h13p12--10h12p10--8h10p8-7h8p7--5h7p5--4h5p4------|
|--------------------------------------------------------|------15--12-----------12---------------------------------------------------------|
|--------------------------------------------------------|-------------13----13-------------------------------------------------------------|
|--------------------------------------------------------|----------------14----------------------------------------------------------------|
|--------------------------------------------------------|----------------------------------------------------------------------------------|
|--------------------------------------------------------|----------------------------------------------------------------------------------|


|-----(13-12-10-12-13)ulang 4x---(12-10-8-10-12)ulang 4x gak--(10-8-7-8-10)ulang 4x--12-13--|
|-------------------------------------------------------------------------------------------|
|-------------------------------------------------------------------------------------------|
|-------------------------------------------------------------------------------------------|
|-------------------------------------------------------------------------------------------|
|-------------------------------------------------------------------------------------------|

   F  G
           

   C             G
kau yang membuat janji
  C             G
kau juga yang ingkari
  Dm              Am
kau bahkan menyakiti
  Dm         F       E
kau yang paling kubenci

            F
untuk apa lagi
           Dm
aku becerita
              G
tiada guna lagi
             C
ku ungkap semua
              F
kalau sudah kasih
              E
tak jujur padaku
     Am
mau apa

            F
untuk apa lagi
           Dm
aku menyesali
             G
tiada guna lagi
              C
untuk ditangisi
               F
kalau sudah kasih
              E
tak jujur padaku
             Am
ho terserahlah

Advertisement

Facebook MalayOLGA

Comments

MalayOLGA - Malaysian Online Guitar Archive

Sponsors

Recent Visitors

blog counter

View My Stats