Advertise on this space for USD3 per month. Click here.

Search


Disclaimer

This guitar tabs & chords is the author's own work and represents their interpretation of the song. You may only use this file for private study, scholarship, or research. Please support Malaysia music & entertainment industries and buy original CD and movies.

Couple - Tentang Kita (with intro)

(List all songs by Couple)
submitted by hazek on
Total views : 8083

Intro

E||-----------------------------------------------------------|
B||-----------------------------------------------------------|
G||-------------7/9-7---7-7-5-4-5/7-5---5-5-4-----------------|
D||--5--7-9-7-5-------------------------------7-5-4--4-4-5/7--|
A||-----------------------------------------------------------|
E||-----------------------------------------------------------|


E||-----------------------------------------------------------|
B||-------------7/8-7---7-7-----------------------------------|
G||--4--5-7-5-4-------------7-9-9/11-9---9-9-7-5-4-2----------|
D||-----------------------------------------------------------|
A||-----------------------------------------------------------|
E||-----------------------------------------------------------|



G               Bm         Bm-A#m-Am
Dimana kaca yang bersepihan
                D Dsus4 Dsus2
Biar aku pijakan
G                 Bm        Bm-A#m-Am
Dimana taufan yang bertiupan
                 D Dsus4 Dsus2
Biar aku hadapkan


         C                  G
Kerna semua sudah tiada ertinya
           C                 G  
Tentang cinta sudah tiada maknanya
          C                G    
Tentang kita elok dilupakan semua
    Am        D Dsus4 D Dsus2 D
Haahaa....Huuuu....


G               Bm        Bm-A#m-Am
Dimana laut yang bergelora
                D Dsus4 Dsus2
Kan ku redah semua
C              Bm         Bm-A#m-Am
Dimana letaknya cinta kita
                 D Dsus4 Dsus2
Kan ku pijak semua


         C                  G
Kerna semua sudah tiada ertinya
           C                  G  
Tentang cinta sudah tiada maknanya
          C                 G    Am D Dsus4 D Dsus2 D
Tentang kita elok dilupakan semua


Outro (same with Intro)

Advertisement

Facebook MalayOLGA

Comments

MalayOLGA - Malaysian Online Guitar Archive

Sponsors

Recent Visitors

blog counter

View My Stats