Advertise on this space for USD3 per month. Click here.

Search


Disclaimer

This guitar tabs & chords is the author's own work and represents their interpretation of the song. You may only use this file for private study, scholarship, or research. Please support Malaysia music & entertainment industries and buy original CD and movies.

BPR - Bumi Putra Rockers - Seribu Tahun Takkan Mungkin (Intro Tab)

(List all songs by BPR - Bumi Putra Rockers)
submitted by arif_aziz on
Total views : 42066

intro:
 
 -------------------------------------------------
 -------6--5--------------------------------------
 --------------------4--5--7---7--5--4------------
 --7-----------7------------------------7--6------
 -------------------------------------------------
 -------------------------------------------------

 -------------------------------------------------
 -------------------------------------------------
 ----------------5--7--5--4--5---7--5--4----------
 -----6--7--9------------------------------7------
 --7-------------------------------------------8--
 -------------------------------------------------
 
 -------------------------------------------------
 -------------------------------------10----------
 ------4-----7-----5-4------7---------------------
 ------------------------7-----7------------------
 --7----------------------------------------------
 -------------------------------------------------

 enjoy:D_adioz

Advertisement

Facebook MalayOLGA

Comments

MalayOLGA - Malaysian Online Guitar Archive

Sponsors

Recent Visitors

blog counter

View My Stats