Advertise on this space for USD3 per month. Click here.

Search


Disclaimer

This guitar tabs & chords is the author's own work and represents their interpretation of the song. You may only use this file for private study, scholarship, or research. Please support Malaysia music & entertainment industries and buy original CD and movies.

Spider - Relaku Pujuk (intro tab)

(List all songs by Spider)
submitted by keldai3 on
Total views : 26556

---------------------------------------------------------------|
---------------------------------------------------------------|
-------------6-------------777-6-4-4/7-------------------------|
---------4-7---7---7-------------------------------------------|
--555--7---------9---7/9---------------------------------------|
---------------------------------------------------------------|

------------10-------------------------------------------------|
-------7-10----10-7---7---/10--5--/7--3------------------------|
--7-9---------------9-----/9---6--/7--4----12------------------|
-------------------------------------------12------------------|
-------------------------------------------10------------------|
---------------------------------------------------------------|

Advertisement

Facebook MalayOLGA

Comments

MalayOLGA - Malaysian Online Guitar Archive

Sponsors

Recent Visitors

blog counter

View My Stats